  0
SECTION
  2
HEADER
  9
$ACADVER
  1
AC1018
  9
$ACADMAINTVER
 70
    77
  9
$DWGCODEPAGE
  3
ANSI_1252
  9
$LASTSAVEDBY
  1
ghisleni.d
  9
$INSBASE
 10
0.0
 20
0.0
 30
0.0
  9
$EXTMIN
 10
-54.51973358116015
 20
-88.46338219399649
 30
-0.0000000349181948
  9
$EXTMAX
 10
54.53134359051273
 20
106.617212893786
 30
0.0000000814935746
  9
$LIMMIN
 10
0.0
 20
0.0
  9
$LIMMAX
 10
420.0
 20
297.0
  9
$ORTHOMODE
 70
     0
  9
$REGENMODE
 70
     1
  9
$FILLMODE
 70
     1
  9
$QTEXTMODE
 70
     0
  9
$MIRRTEXT
 70
     1
  9
$LTSCALE
 40
3.0
  9
$ATTMODE
 70
     1
  9
$TEXTSIZE
 40
3.0
  9
$TRACEWID
 40
0.05
  9
$TEXTSTYLE
  7
ROMANS
  9
$CLAYER
  8
quote
  9
$CELTYPE
  6
BYLAYER
  9
$CECOLOR
 62
   256
  9
$CELTSCALE
 40
1.0
  9
$DISPSILH
 70
     0
  9
$DIMSCALE
 40
1.0
  9
$DIMASZ
 40
3.0
  9
$DIMEXO
 40
0.5
  9
$DIMDLI
 40
1.0
  9
$DIMRND
 40
0.0
  9
$DIMDLE
 40
0.0
  9
$DIMEXE
 40
1.0
  9
$DIMTP
 40
0.0
  9
$DIMTM
 40
0.0
  9
$DIMTXT
 40
3.0
  9
$DIMCEN
 40
5.0
  9
$DIMTSZ
 40
0.0
  9
$DIMTOL
 70
     0
  9
$DIMLIM
 70
     0
  9
$DIMTIH
 70
     0
  9
$DIMTOH
 70
     1
  9
$DIMSE1
 70
     0
  9
$DIMSE2
 70
     0
  9
$DIMTAD
 70
     3
  9
$DIMZIN
 70
     8
  9
$DIMBLK
  1

  9
$DIMASO
 70
     1
  9
$DIMSHO
 70
     1
  9
$DIMPOST
  1

  9
$DIMAPOST
  1

  9
$DIMALT
 70
     0
  9
$DIMALTD
 70
     2
  9
$DIMALTF
 40
25.4
  9
$DIMLFAC
 40
1.0
  9
$DIMTOFL
 70
     0
  9
$DIMTVP
 40
0.0
  9
$DIMTIX
 70
     0
  9
$DIMSOXD
 70
     1
  9
$DIMSAH
 70
     0
  9
$DIMBLK1
  1

  9
$DIMBLK2
  1

  9
$DIMSTYLE
  2
STANDARD
  9
$DIMCLRD
 70
     0
  9
$DIMCLRE
 70
   256
  9
$DIMCLRT
 70
     0
  9
$DIMTFAC
 40
1.0
  9
$DIMGAP
 40
1.5
  9
$DIMJUST
 70
     0
  9
$DIMSD1
 70
     0
  9
$DIMSD2
 70
     0
  9
$DIMTOLJ
 70
     1
  9
$DIMTZIN
 70
     0
  9
$DIMALTZ
 70
     0
  9
$DIMALTTZ
 70
     0
  9
$DIMUPT
 70
     0
  9
$DIMDEC
 70
     0
  9
$DIMTDEC
 70
     0
  9
$DIMALTU
 70
     2
  9
$DIMALTTD
 70
     2
  9
$DIMTXSTY
  7
STANDARD
  9
$DIMAUNIT
 70
     0
  9
$DIMADEC
 70
     0
  9
$DIMALTRND
 40
0.0
  9
$DIMAZIN
 70
     2
  9
$DIMDSEP
 70
    44
  9
$DIMATFIT
 70
     3
  9
$DIMFRAC
 70
     0
  9
$DIMLDRBLK
  1

  9
$DIMLUNIT
 70
     2
  9
$DIMLWD
 70
    -1
  9
$DIMLWE
 70
    -2
  9
$DIMTMOVE
 70
     0
  9
$LUNITS
 70
     2
  9
$LUPREC
 70
     4
  9
$SKETCHINC
 40
0.1
  9
$FILLETRAD
 40
0.5
  9
$AUNITS
 70
     0
  9
$AUPREC
 70
     1
  9
$MENU
  1
acad
  9
$ELEVATION
 40
0.0
  9
$PELEVATION
 40
0.0
  9
$THICKNESS
 40
0.0
  9
$LIMCHECK
 70
     0
  9
$CHAMFERA
 40
1.0
  9
$CHAMFERB
 40
1.0
  9
$CHAMFERC
 40
0.0
  9
$CHAMFERD
 40
0.0
  9
$SKPOLY
 70
     0
  9
$TDCREATE
 40
2452489.490894676
  9
$TDUCREATE
 40
2452489.449228009
  9
$TDUPDATE
 40
2456594.728831331
  9
$TDUUPDATE
 40
2456594.687164665
  9
$TDINDWG
 40
0.2380661574
  9
$TDUSRTIMER
 40
2456555.436340348
  9
$USRTIMER
 70
     1
  9
$ANGBASE
 50
0.0
  9
$ANGDIR
 70
     0
  9
$PDMODE
 70
     0
  9
$PDSIZE
 40
0.0
  9
$PLINEWID
 40
0.0
  9
$SPLFRAME
 70
     0
  9
$SPLINETYPE
 70
     6
  9
$SPLINESEGS
 70
     8
  9
$HANDSEED
  5
6903
  9
$SURFTAB1
 70
     6
  9
$SURFTAB2
 70
     6
  9
$SURFTYPE
 70
     6
  9
$SURFU
 70
     6
  9
$SURFV
 70
     6
  9
$UCSBASE
  2

  9
$UCSNAME
  2

  9
$UCSORG
 10
0.0
 20
0.0
 30
0.0
  9
$UCSXDIR
 10
1.0
 20
0.0
 30
0.0
  9
$UCSYDIR
 10
0.0
 20
1.0
 30
0.0
  9
$UCSORTHOREF
  2

  9
$UCSORTHOVIEW
 70
     0
  9
$UCSORGTOP
 10
0.0
 20
0.0
 30
0.0
  9
$UCSORGBOTTOM
 10
0.0
 20
0.0
 30
0.0
  9
$UCSORGLEFT
 10
0.0
 20
0.0
 30
0.0
  9
$UCSORGRIGHT
 10
0.0
 20
0.0
 30
0.0
  9
$UCSORGFRONT
 10
0.0
 20
0.0
 30
0.0
  9
$UCSORGBACK
 10
0.0
 20
0.0
 30
0.0
  9
$PUCSBASE
  2

  9
$PUCSNAME
  2

  9
$PUCSORG
 10
0.0
 20
0.0
 30
0.0
  9
$PUCSXDIR
 10
1.0
 20
0.0
 30
0.0
  9
$PUCSYDIR
 10
0.0
 20
1.0
 30
0.0
  9
$PUCSORTHOREF
  2

  9
$PUCSORTHOVIEW
 70
     0
  9
$PUCSORGTOP
 10
0.0
 20
0.0
 30
0.0
  9
$PUCSORGBOTTOM
 10
0.0
 20
0.0
 30
0.0
  9
$PUCSORGLEFT
 10
0.0
 20
0.0
 30
0.0
  9
$PUCSORGRIGHT
 10
0.0
 20
0.0
 30
0.0
  9
$PUCSORGFRONT
 10
0.0
 20
0.0
 30
0.0
  9
$PUCSORGBACK
 10
0.0
 20
0.0
 30
0.0
  9
$USERI1
 70
     0
  9
$USERI2
 70
     0
  9
$USERI3
 70
     0
  9
$USERI4
 70
     0
  9
$USERI5
 70
     0
  9
$USERR1
 40
0.0
  9
$USERR2
 40
0.0
  9
$USERR3
 40
0.0
  9
$USERR4
 40
0.0
  9
$USERR5
 40
0.0
  9
$WORLDVIEW
 70
     1
  9
$SHADEDGE
 70
     3
  9
$SHADEDIF
 70
    70
  9
$TILEMODE
 70
     1
  9
$MAXACTVP
 70
    16
  9
$PINSBASE
 10
0.0
 20
0.0
 30
0.0
  9
$PLIMCHECK
 70
     0
  9
$PEXTMIN
 10
1.000000000000000E+20
 20
1.000000000000000E+20
 30
1.000000000000000E+20
  9
$PEXTMAX
 10
-1.000000000000000E+20
 20
-1.000000000000000E+20
 30
-1.000000000000000E+20
  9
$PLIMMIN
 10
0.0
 20
0.0
  9
$PLIMMAX
 10
12.0
 20
9.0
  9
$UNITMODE
 70
     0
  9
$VISRETAIN
 70
     0
  9
$PLINEGEN
 70
     0
  9
$PSLTSCALE
 70
     1
  9
$TREEDEPTH
 70
  3020
  9
$CMLSTYLE
  2
STANDARD
  9
$CMLJUST
 70
     0
  9
$CMLSCALE
 40
1.0
  9
$PROXYGRAPHICS
 70
     1
  9
$MEASUREMENT
 70
     0
  9
$CELWEIGHT
370
    -1
  9
$ENDCAPS
280
     0
  9
$JOINSTYLE
280
     0
  9
$LWDISPLAY
290
     0
  9
$INSUNITS
 70
     0
  9
$HYPERLINKBASE
  1

  9
$STYLESHEET
  1
aclt.ctb
  9
$XEDIT
290
     1
  9
$CEPSNTYPE
380
     0
  9
$PSTYLEMODE
290
     1
  9
$FINGERPRINTGUID
  2
{A7945A47-D4F8-4789-B627-EB4A36DC059D}
  9
$VERSIONGUID
  2
{5B388ACD-033F-48F6-A6CE-79AA5F842ACA}
  9
$EXTNAMES
290
     1
  9
$PSVPSCALE
 40
0.0
  9
$OLESTARTUP
290
     0
  9
$SORTENTS
280
    96
  9
$INDEXCTL
280
     0
  9
$HIDETEXT
280
     1
  9
$XCLIPFRAME
290
     0
  9
$HALOGAP
280
     0
  9
$OBSCOLOR
 70
   257
  9
$OBSLTYPE
280
     0
  9
$INTERSECTIONDISPLAY
280
     0
  9
$INTERSECTIONCOLOR
 70
   257
  9
$DIMASSOC
280
     2
  9
$PROJECTNAME
  1

  0
ENDSEC
  0
SECTION
  2
CLASSES
  0
CLASS
  1
DICTIONARYVAR
  2
AcDbDictionaryVar
  3
ObjectDBX Classes
 90
        0
 91
        4
280
     0
281
     0
  0
CLASS
  1
LWPOLYLINE
  2
AcDbPolyline
  3
ObjectDBX Classes
 90
        0
 91
       26
280
     0
281
     1
  0
CLASS
  1
HATCH
  2
AcDbHatch
  3
ObjectDBX Classes
 90
        0
 91
        6
280
     0
281
     1
  0
CLASS
  1
SCALE
  2
AcDbScale
  3
ObjectDBX Classes
 90
     1153
 91
       33
280
     0
281
     0
  0
CLASS
  1
MATERIAL
  2
AcDbMaterial
  3
ObjectDBX Classes
 90
        0
 91
        3
280
     0
281
     0
  0
CLASS
  1
VISUALSTYLE
  2
AcDbVisualStyle
  3
ObjectDBX Classes
 90
     4095
 91
        0
280
     0
281
     0
  0
CLASS
  1
TABLESTYLE
  2
AcDbTableStyle
  3
ObjectDBX Classes
 90
     2047
 91
        1
280
     0
281
     0
  0
CLASS
  1
RASTERVARIABLES
  2
AcDbRasterVariables
  3
ISM
 90
        0
 91
        1
280
     0
281
     0
  0
CLASS
  1
ACDBDICTIONARYWDFLT
  2
AcDbDictionaryWithDefault
  3
ObjectDBX Classes
 90
        0
 91
        1
280
     0
281
     0
  0
CLASS
  1
XRECORD
  2
AcDbXrecord
  3
ObjectDBX Classes
 90
        0
 91
        2
280
     0
281
     0
  0
CLASS
  1
CELLSTYLEMAP
  2
AcDbCellStyleMap
  3
ObjectDBX Classes
 90
     1152
 91
        1
280
     0
281
     0
  0
CLASS
  1
DIMASSOC
  2
AcDbDimAssoc
  3
"AcDbDimAssoc|Product Desc:     AcDim ARX App For Dimension|Company:          Autodesk, Inc.|WEB Address:      www.autodesk.com"
 90
        0
 91
        6
280
     0
281
     0
  0
CLASS
  1
SORTENTSTABLE
  2
AcDbSortentsTable
  3
ObjectDBX Classes
 90
        0
 91
        1
280
     0
281
     0
  0
ENDSEC
  0
SECTION
  2
TABLES
  0
TABLE
  2
VPORT
  5
8
330
0
100
AcDbSymbolTable
 70
     3
  0
VPORT
  5
6902
330
8
100
AcDbSymbolTableRecord
100
AcDbViewportTableRecord
  2
*Active
 70
     0
 10
0.0
 20
0.0
 11
1.0
 21
1.0
 12
0.0058050046762759
 22
9.076915349894761
 13
0.0
 23
0.0
 14
1.0
 24
1.0
 15
0.0
 25
0.0
 16
0.0
 26
0.0
 36
1.0
 17
0.0
 27
0.0
 37
0.0
 40
196.518535592115
 41
1.608856088560885
 42
50.0
 43
0.0
 44
0.0
 50
0.0
 51
0.0
 71
    16
 72
   100
 73
     1
 74
     0
 75
     0
 76
     0
 77
     0
 78
     0
281
     0
 65
     1
110
0.0
120
0.0
130
0.0
111
1.0
121
0.0
131
0.0
112
0.0
122
1.0
132
0.0
 79
     0
146
0.0
  0
ENDTAB
  0
TABLE
  2
LTYPE
  5
5
330
0
100
AcDbSymbolTable
 70
     1
  0
LTYPE
  5
11
330
5
100
AcDbSymbolTableRecord
100
AcDbLinetypeTableRecord
  2
BYBLOCK
 70
     0
  3

 72
    65
 73
     0
 40
0.0
  0
LTYPE
  5
12
330
5
100
AcDbSymbolTableRecord
100
AcDbLinetypeTableRecord
  2
BYLAYER
 70
     0
  3

 72
    65
 73
     0
 40
0.0
  0
LTYPE
  5
13
330
5
100
AcDbSymbolTableRecord
100
AcDbLinetypeTableRecord
  2
CONTINUOUS
 70
     0
  3
linea continua
 72
    65
 73
     0
 40
0.0
  0
ENDTAB
  0
TABLE
  2
LAYER
  5
2
102
{ACAD_XDICTIONARY
360
53D0
102
}
330
0
100
AcDbSymbolTable
 70
     3
  0
LAYER
  5
E
330
2
100
AcDbSymbolTableRecord
100
AcDbLayerTableRecord
  2
0
 70
     0
 62
     7
  6
CONTINUOUS
370
    -3
390
3DA0
  0
LAYER
  5
63
330
2
100
AcDbSymbolTableRecord
100
AcDbLayerTableRecord
  2
DEFPOINTS
 70
     0
 62
     7
  6
CONTINUOUS
290
     0
370
    -3
390
3DA0
  0
LAYER
  5
53CE
330
2
100
AcDbSymbolTableRecord
100
AcDbLayerTableRecord
  2
quote
 70
     0
 62
     5
  6
CONTINUOUS
370
     5
390
3DA0
1001
AcAecLayerStandard
1000

1000

  0
ENDTAB
  0
TABLE
  2
STYLE
  5
3
330
0
100
AcDbSymbolTable
 70
     2
  0
STYLE
  5
F
330
3
100
AcDbSymbolTableRecord
100
AcDbTextStyleTableRecord
  2
STANDARD
 70
     0
 40
0.0
 41
1.0
 50
0.0
 71
     0
 42
0.2
  3
txt
  4

  0
STYLE
  5
51
330
3
100
AcDbSymbolTableRecord
100
AcDbTextStyleTableRecord
  2
ROMANS
 70
     0
 40
0.0
 41
0.8
 50
0.0
 71
     0
 42
3.0
  3
romans
  4

  0
ENDTAB
  0
TABLE
  2
VIEW
  5
6
330
0
100
AcDbSymbolTable
 70
     0
  0
ENDTAB
  0
TABLE
  2
UCS
  5
7
330
0
100
AcDbSymbolTable
 70
     0
  0
ENDTAB
  0
TABLE
  2
APPID
  5
9
330
0
100
AcDbSymbolTable
 70
    12
  0
APPID
  5
10
330
9
100
AcDbSymbolTableRecord
100
AcDbRegAppTableRecord
  2
ACAD
 70
     0
  0
APPID
  5
43E7
330
9
100
AcDbSymbolTableRecord
100
AcDbRegAppTableRecord
  2
ACAD_EXEMPT_FROM_CAD_STANDARDS
 70
     0
  0
APPID
  5
53CF
330
9
100
AcDbSymbolTableRecord
100
AcDbRegAppTableRecord
  2
AcAecLayerStandard
 70
     0
  0
APPID
  5
5417
330
9
100
AcDbSymbolTableRecord
100
AcDbRegAppTableRecord
  2
ACAD_DSTYLE_DIMTEXT_FILL
 70
     0
  0
APPID
  5
5418
330
9
100
AcDbSymbolTableRecord
100
AcDbRegAppTableRecord
  2
ACAD_DSTYLE_DIMEXT_LENGTH
 70
     0
  0
APPID
  5
5419
330
9
100
AcDbSymbolTableRecord
100
AcDbRegAppTableRecord
  2
ACAD_DSTYLE_DIMEXT_ENABLED
 70
     0
  0
APPID
  5
541A
330
9
100
AcDbSymbolTableRecord
100
AcDbRegAppTableRecord
  2
ACAD_DSTYLE_DIM_LINETYPE
 70
     0
  0
APPID
  5
541B
330
9
100
AcDbSymbolTableRecord
100
AcDbRegAppTableRecord
  2
ACAD_DSTYLE_DIM_EXT1_LINETYPE
 70
     0
  0
APPID
  5
541C
330
9
100
AcDbSymbolTableRecord
100
AcDbRegAppTableRecord
  2
ACAD_DSTYLE_DIM_EXT2_LINETYPE
 70
     0
  0
APPID
  5
559C
330
9
100
AcDbSymbolTableRecord
100
AcDbRegAppTableRecord
  2
ACAD_DSTYLE_DIMJOGGED_JOGANGLE_SYMBOL
 70
     0
  0
APPID
  5
5810
330
9
100
AcDbSymbolTableRecord
100
AcDbRegAppTableRecord
  2
ACAD_DSTYLE_DIMARC_LENGTH_SYMBOL
 70
     0
  0
APPID
  5
68B6
330
9
100
AcDbSymbolTableRecord
100
AcDbRegAppTableRecord
  2
ACAD_PSEXT
 70
     0
  0
ENDTAB
  0
TABLE
  2
DIMSTYLE
  5
A
330
0
100
AcDbSymbolTable
 70
     2
100
AcDbDimStyleTable
 71
     1
340
1CC8
  0
DIMSTYLE
105
1CC8
330
A
100
AcDbSymbolTableRecord
100
AcDbDimStyleTableRecord
  2
STANDARD
 70
     0
 41
3.0
 42
0.5
 43
1.0
 44
1.0
 73
     0
 77
     3
 78
     8
 79
     2
140
3.0
141
5.0
147
1.5
175
     1
177
   256
271
     0
272
     0
278
    44
340
F
371
    -1
1001
ACAD_DSTYLE_DIMEXT_LENGTH
1070
   378
1040
0.18
1001
ACAD_DSTYLE_DIMEXT_ENABLED
1070
   383
1070
     0
1001
ACAD_DSTYLE_DIMARC_LENGTH_SYMBOL
1070
   379
1070
     0
1001
ACAD_DSTYLE_DIMJOGGED_JOGANGLE_SYMBOL
1070
   384
1040
0.7853981633974483
1001
ACAD_DSTYLE_DIM_LINETYPE
1070
   380
1005
12
  0
ENDTAB
  0
TABLE
  2
BLOCK_RECORD
  5
1
330
0
100
AcDbSymbolTable
 70
    14
  0
BLOCK_RECORD
  5
17
102
{ACAD_XDICTIONARY
360
4A8A
102
}
330
1
100
AcDbSymbolTableRecord
100
AcDbBlockTableRecord
  2
*MODEL_SPACE
340
3D7E
  0
BLOCK_RECORD
  5
14
330
1
100
AcDbSymbolTableRecord
100
AcDbBlockTableRecord
  2
*PAPER_SPACE
340
3D7F
  0
BLOCK_RECORD
  5
1CF0
330
1
100
AcDbSymbolTableRecord
100
AcDbBlockTableRecord
  2
AR0
340
0
102
{BLKREFS
331
316D
102
}
  0
ENDTAB
  0
ENDSEC
  0
SECTION
  2
BLOCKS
  0
BLOCK
  5
6E
330
17
100
AcDbEntity
  8
0
100
AcDbBlockBegin
  2
*MODEL_SPACE
 70
     0
 10
0.0
 20
0.0
 30
0.0
  3
*MODEL_SPACE
  1

  0
ENDBLK
  5
6F
330
17
100
AcDbEntity
  8
0
100
AcDbBlockEnd
  0
BLOCK
  5
6C
330
14
100
AcDbEntity
 67
     1
  8
0
100
AcDbBlockBegin
  2
*PAPER_SPACE
 70
     0
 10
0.0
 20
0.0
 30
0.0
  3
*PAPER_SPACE
  1

  0
ENDBLK
  5
6D
330
14
100
AcDbEntity
 67
     1
  8
0
100
AcDbBlockEnd
  0
BLOCK
  5
1CF1
330
1CF0
100
AcDbEntity
  8
0
100
AcDbBlockBegin
  2
AR0
 70
     0
 10
0.0
 20
0.0
 30
0.0
  3
AR0
  1

  0
ENDBLK
  5
1CF2
330
1CF0
100
AcDbEntity
  8
0
100
AcDbBlockEnd
  0
ENDSEC
  0
SECTION
  2
ENTITIES
  0
INSERT
  5
316D
330
17
100
AcDbEntity
  8
0
100
AcDbBlockReference
  2
AR0
 10
0.0
 20
0.0
 30
0.0
  0
ELLIPSE
  5
41E8
330
17
100
AcDbEntity
  8
0
 62
     7
370
    15
100
AcDbEllipse
 10
-44.00706600086801
 20
55.59807767166711
 30
0.0
 11
8.000101200175102
 21
0.3479653101689458
 31
0.0
210
0.0
220
0.0
230
1.0
 40
0.0433302253951831
 41
3.143491675331584
 42
4.706691805579542
  0
LINE
  5
41E9
330
17
100
AcDbEntity
  8
0
 62
     7
370
    15
100
AcDbLine
 10
-52.00712382793426
 20
55.24945482059337
 30
0.0
 11
-52.78128013014793
 21
64.09807772754646
 31
0.0
  0
LINE
  5
41EA
330
17
100
AcDbEntity
  8
0
 62
     7
370
    15
100
AcDbLine
 10
52.78128013014793
 20
64.09807772754646
 30
0.0
 11
52.00712382793426
 21
55.24945482059337
 31
0.0
  0
ELLIPSE
  5
41EB
330
17
100
AcDbEntity
  8
0
 62
     7
370
    15
100
AcDbEllipse
 10
44.00706600086801
 20
55.59807767166711
 30
0.0
 11
8.000101200175123
 21
-0.3479653101689456
 31
0.0
210
0.0
220
0.0
230
1.0
 40
0.0433302253951829
 41
4.718086155189834
 42
6.281286285438431
  0
ELLIPSE
  5
41EC
330
17
100
AcDbEntity
  8
0
 62
     7
370
    15
100
AcDbEllipse
 10
47.0
 20
43.56399386678782
 30
0.0
 11
0.0
 21
114.3005230276131
 31
0.0
210
0.0
220
0.0
230
1.0
 40
0.0874886635259242
 41
1.570796326794889
 42
1.681812537833446
  0
ELLIPSE
  5
41EE
330
17
100
AcDbEntity
  8
0
 62
     7
370
    15
100
AcDbEllipse
 10
-47.0
 20
43.56399386678782
 30
0.0
 11
0.0
 21
114.3005230276131
 31
0.0
210
0.0
220
0.0
230
1.0
 40
0.0874886635259242
 41
4.601372769346143
 42
4.712388980384695
  0
LINE
  5
41EF
330
17
100
AcDbEntity
  8
0
 62
     7
370
    15
100
AcDbLine
 10
-37.00000047683716
 20
55.24945482059337
 30
0.0
 11
-37.00000047683716
 21
43.56399308337785
 31
0.0
  0
LINE
  5
41F0
330
17
100
AcDbEntity
  8
0
 62
     7
370
    15
100
AcDbLine
 10
-44.03756558895111
 20
55.24945482059337
 30
0.0
 11
-37.00000047683716
 21
55.24945482059337
 31
0.0
  0
LINE
  5
41F1
330
17
100
AcDbEntity
  8
0
 62
     7
370
    15
100
AcDbLine
 10
37.00000047683716
 20
55.24945482059337
 30
0.0
 11
44.03756558895111
 21
55.24945482059337
 31
0.0
  0
LINE
  5
41F2
330
17
100
AcDbEntity
  8
0
 62
     7
370
    15
100
AcDbLine
 10
37.00000047683716
 20
43.56399308337785
 30
0.0
 11
37.00000047683716
 21
55.24945482059337
 31
0.0
  0
LINE
  5
425E
330
17
100
AcDbEntity
  8
0
 62
     7
370
    15
100
AcDbLine
 10
9.999999776482468
 20
47.59807828261472
 30
0.0
 11
-4.000000189989918
 21
47.59807828261472
 31
0.0
  0
LINE
  5
425F
330
17
100
AcDbEntity
  8
0
 62
     7
370
    15
100
AcDbLine
 10
-4.000000189989918
 20
49.59807674779511
 30
0.0
 11
-9.999999776482695
 21
46.59807811870194
 31
0.0
  0
LINE
  5
4260
330
17
100
AcDbEntity
  8
0
 62
     7
370
    15
100
AcDbLine
 10
-9.999999776482695
 20
46.59807811870194
 30
0.0
 11
-4.000000189989918
 21
43.59807762696362
 31
0.0
  0
LINE
  5
4261
330
17
100
AcDbEntity
  8
0
 62
     7
370
    15
100
AcDbLine
 10
-4.000000189989918
 20
43.59807762696362
 30
0.0
 11
-4.000000189989918
 21
45.59807795478917
 31
0.0
  0
LINE
  5
4262
330
17
100
AcDbEntity
  8
0
 62
     7
370
    15
100
AcDbLine
 10
-4.000000189989918
 20
45.59807795478917
 30
0.0
 11
9.999999776482468
 21
45.59807795478917
 31
0.0
  0
LINE
  5
4263
330
17
100
AcDbEntity
  8
0
 62
     7
370
    15
100
AcDbLine
 10
9.999999776482468
 20
45.59807795478917
 30
0.0
 11
9.999999776482468
 21
47.59807828261472
 31
0.0
  0
LINE
  5
4264
330
17
100
AcDbEntity
  8
0
 62
     7
370
    15
100
AcDbLine
 10
-4.000000189989918
 20
47.59807828261472
 30
0.0
 11
-4.000000189989918
 21
49.59807674779511
 31
0.0
  0
ARC
  5
4273
330
17
100
AcDbEntity
  8
0
 62
     7
370
    15
100
AcDbCircle
 10
23.25
 20
43.59807767166711
 30
0.0
 40
3.750000000000022
100
AcDbArc
 50
78.46304096718187
 51
281.5369590328181
  0
LINE
  5
4274
330
17
100
AcDbEntity
  8
0
 62
     7
370
    15
100
AcDbLine
 10
24.00000020861626
 20
39.92384243204213
 30
0.0
 11
24.00000020861626
 21
38.40192537202455
 31
0.0
  0
ARC
  5
4275
330
17
100
AcDbEntity
  8
0
 62
     7
370
    15
100
AcDbCircle
 10
23.25
 20
43.59807767166711
 30
0.0
 40
5.250000000000023
100
AcDbArc
 50
81.7867892982638
 51
278.2132107017361
  0
LINE
  5
4276
330
17
100
AcDbEntity
  8
0
 62
     7
370
    15
100
AcDbLine
 10
24.00000020861626
 20
48.7942298819027
 30
0.0
 11
24.00000020861626
 21
47.27231282188512
 31
0.0
  0
ARC
  5
4277
330
17
100
AcDbEntity
  8
0
 62
     7
370
    15
100
AcDbCircle
 10
32.25
 20
43.59807767166711
 30
0.0
 40
5.250000000000023
100
AcDbArc
 50
81.7867892982638
 51
278.2132107017361
  0
LINE
  5
4278
330
17
100
AcDbEntity
  8
0
 62
     7
370
    15
100
AcDbLine
 10
32.99999982118607
 20
48.7942298819027
 30
0.0
 11
32.99999982118607
 21
47.27231282188512
 31
0.0
  0
ARC
  5
4279
330
17
100
AcDbEntity
  8
0
 62
     7
370
    15
100
AcDbCircle
 10
32.25
 20
43.59807767166711
 30
0.0
 40
3.750000000000005
100
AcDbArc
 50
78.46304096718187
 51
168.463040967185
  0
LINE
  5
427A
330
17
100
AcDbEntity
  8
0
 62
     7
370
    15
100
AcDbLine
 10
28.57576496899128
 20
44.34807728423692
 30
0.0
 11
31.50000050663948
 21
44.34807728423692
 31
0.0
  0
LINE
  5
427B
330
17
100
AcDbEntity
  8
0
 62
     7
370
    15
100
AcDbLine
 10
31.50000050663948
 20
44.34807728423692
 30
0.0
 11
31.50000050663948
 21
42.84807796969033
 31
0.0
  0
LINE
  5
427C
330
17
100
AcDbEntity
  8
0
 62
     7
370
    15
100
AcDbLine
 10
31.50000050663948
 20
42.84807796969033
 30
0.0
 11
28.57576496899128
 21
42.84807796969033
 31
0.0
  0
ARC
  5
427D
330
17
100
AcDbEntity
  8
0
 62
     7
370
    15
100
AcDbCircle
 10
32.25
 20
43.59807767166711
 30
0.0
 40
3.750000000000019
100
AcDbArc
 50
191.5369590328181
 51
281.5369590328181
  0
LINE
  5
427E
330
17
100
AcDbEntity
  8
0
 62
     7
370
    15
100
AcDbLine
 10
32.99999982118607
 20
39.92384243204213
 30
0.0
 11
32.99999982118607
 21
38.40192537202455
 31
0.0
  0
LINE
  5
427F
330
17
100
AcDbEntity
  8
0
 62
     7
370
    15
100
AcDbLine
 10
4.315384663641452
 20
38.75192384614564
 30
0.0
 11
4.930769093334674
 21
38.75192384614564
 31
0.0
  0
SPLINE
  5
4280
330
17
100
AcDbEntity
  8
0
 62
     7
370
    15
100
AcDbSpline
210
0.0
220
0.0
230
1.0
 70
     8
 71
     3
 72
    22
 73
    18
 74
     0
 42
0.0000000001
 43
0.0000000001
 40
0.0
 40
0.0
 40
0.0
 40
0.0
 40
0.1250000000000007
 40
0.1250000000000007
 40
0.2500000000000013
 40
0.2500000000000013
 40
0.5000000000000035
 40
0.5000000000000035
 40
0.6250000000000035
 40
0.6250000000000035
 40
0.7500000000000035
 40
0.7500000000000035
 40
0.8750000000000033
 40
0.8750000000000033
 40
0.9375000000000017
 40
0.9375000000000017
 40
1.0
 40
1.0
 40
1.0
 40
1.0
 10
6.43197115384612
 20
40.75192382551318
 30
0.0
 10
6.296011089386865
 20
40.74918653998174
 30
0.0
 10
6.160641221515106
 20
40.74284564734722
 30
0.0
 10
5.895068498535238
 20
40.69861524880815
 30
0.0
 10
5.763561624509179
 20
40.66521273053678
 30
0.0
 10
5.379315426564744
 20
40.52408169291874
 30
0.0
 10
5.150829185015936
 20
40.38123080691327
 30
0.0
 10
4.851403342352455
 20
40.10360790673764
 30
0.0
 10
4.760665942225386
 20
40.00391449470424
 30
0.0
 10
4.603937480604713
 20
39.78501574733611
 30
0.0
 10
4.536425849090619
 20
39.66487118137724
 30
0.0
 10
4.428957518303491
 20
39.41732198652204
 30
0.0
 10
4.389533335035707
 20
39.28881867615274
 30
0.0
 10
4.347835248037881
 20
39.09030128657224
 30
0.0
 10
4.337002676362203
 20
39.02288187202504
 30
0.0
 10
4.322726074070033
 20
38.88771485281683
 30
0.0
 10
4.319055674200512
 20
38.8198193095198
 30
0.0
 10
4.315384615384573
 20
38.75192382551319
 30
0.0
  0
SPLINE
  5
4281
330
17
100
AcDbEntity
  8
0
 62
     7
370
    15
100
AcDbSpline
210
0.0
220
0.0
230
1.0
 70
     8
 71
     3
 72
    22
 73
    18
 74
     0
 42
0.0000000001
 43
0.0000000001
 40
0.0
 40
0.0
 40
0.0
 40
0.0
 40
0.0625000000000007
 40
0.0625000000000007
 40
0.1250000000000014
 40
0.1250000000000014
 40
0.2500000000000019
 40
0.2500000000000019
 40
0.3750000000000024
 40
0.3750000000000024
 40
0.5000000000000029
 40
0.5000000000000029
 40
0.750000000000002
 40
0.750000000000002
 40
0.875000000000001
 40
0.875000000000001
 40
1.0
 40
1.0
 40
1.0
 40
1.0
 10
8.392307692307667
 20
38.95384690243628
 30
0.0
 10
8.390680651183174
 20
39.01574980761001
 30
0.0
 10
8.389031352481765
 20
39.07764885580406
 30
0.0
 10
8.377684513928443
 20
39.20005228543238
 30
0.0
 10
8.368188547126692
 20
39.26059159713606
 30
0.0
 10
8.330643609081221
 20
39.44064005276681
 30
0.0
 10
8.290540926418771
 20
39.55954820899257
 30
0.0
 10
8.187841723443057
 20
39.78442138792951
 30
0.0
 10
8.123981125693376
 20
39.88943770001623
 30
0.0
 10
7.975661589635592
 20
40.08725343935106
 30
0.0
 10
7.890892631125552
 20
40.17981980475639
 30
0.0
 10
7.619050036658563
 20
40.43136102511385
 30
0.0
 10
7.399755452863018
 20
40.5614263844738
 30
0.0
 10
7.048872869637989
 20
40.67860298235967
 30
0.0
 10
6.926808510603791
 20
40.70698449538332
 30
0.0
 10
6.680816627354261
 20
40.74417880071286
 30
0.0
 10
6.556508811001663
 20
40.74923730088056
 30
0.0
 10
6.43197115384612
 20
40.75192382551318
 30
0.0
  0
SPLINE
  5
4282
330
17
100
AcDbEntity
  8
0
 62
     7
370
    15
100
AcDbSpline
210
0.0
220
0.0
230
1.0
 70
     8
 71
     3
 72
    14
 73
    10
 74
     0
 42
0.0000000001
 43
0.0000000001
 40
0.0
 40
0.0
 40
0.0
 40
0.0
 40
0.4999999999999984
 40
0.4999999999999984
 40
0.7499999999999977
 40
0.7499999999999977
 40
0.8749999999999987
 40
0.8749999999999987
 40
1.0
 40
1.0
 40
1.0
 40
1.0
 10
7.108653846153856
 20
36.78437574859009
 30
0.0
 10
7.411860771450392
 20
37.09391033892172
 30
0.0
 10
7.712499290452797
 20
37.40728573194536
 30
0.0
 10
8.097687094205639
 20
37.93106715782818
 30
0.0
 10
8.208895434662508
 20
38.11508886298083
 30
0.0
 10
8.319059566439364
 20
38.42214870505728
 30
0.0
 10
8.347039959045559
 20
38.52639350741919
 30
0.0
 10
8.38312789555016
 20
38.73784366301805
 30
0.0
 10
8.388106597768796
 20
38.84577949384362
 30
0.0
 10
8.392307692307667
 20
38.95384690243628
 30
0.0
  0
LINE
  5
4283
330
17
100
AcDbEntity
  8
0
 62
     7
370
    15
100
AcDbLine
 10
5.537740420550107
 20
35.21346058144189
 30
0.0
 11
7.108653895556926
 21
36.78437638475515
 31
0.0
  0
LINE
  5
4284
330
17
100
AcDbEntity
  8
0
 62
     7
370
    15
100
AcDbLine
 10
8.469230495393276
 20
35.21346058144189
 30
0.0
 11
5.537740420550107
 21
35.21346058144189
 31
0.0
  0
LINE
  5
4285
330
17
100
AcDbEntity
  8
0
 62
     7
370
    15
100
AcDbLine
 10
8.469230495393276
 20
34.59807615174867
 30
0.0
 11
8.469230495393276
 21
35.21346058144189
 31
0.0
  0
LINE
  5
4286
330
17
100
AcDbEntity
  8
0
 62
     7
370
    15
100
AcDbLine
 10
4.084615502506494
 20
34.59807615174867
 30
0.0
 11
8.469230495393276
 21
34.59807615174867
 31
0.0
  0
LINE
  5
4287
330
17
100
AcDbEntity
  8
0
 62
     7
370
    15
100
AcDbLine
 10
6.566586438566446
 20
37.08125035657503
 30
0.0
 11
4.084615502506494
 21
34.59807615174867
 31
0.0
  0
SPLINE
  5
4288
330
17
100
AcDbEntity
  8
0
 62
     7
370
    15
100
AcDbSpline
210
0.0
220
0.0
230
1.0
 70
     8
 71
     3
 72
    16
 73
    12
 74
     0
 42
0.0000000001
 43
0.0000000001
 40
0.0
 40
0.0
 40
0.0
 40
0.0
 40
0.1250000000000015
 40
0.1250000000000015
 40
0.2500000000000031
 40
0.2500000000000031
 40
0.5000000000000022
 40
0.5000000000000022
 40
0.7500000000000011
 40
0.7500000000000011
 40
1.0
 40
1.0
 40
1.0
 40
1.0
 10
7.776923076923026
 20
38.92019305628247
 30
0.0
 10
7.772792854529598
 20
38.82565047718634
 30
0.0
 10
7.767142992202707
 20
38.73145133335749
 30
0.0
 10
7.727980825448184
 20
38.54934989605084
 30
0.0
 10
7.697749292662592
 20
38.46070615543107
 30
0.0
 10
7.580427872876725
 20
38.20079253638125
 30
0.0
 10
7.468333499213144
 20
38.04812645380133
 30
0.0
 10
7.227266964401223
 20
37.75787177345995
 30
0.0
 10
7.097871229312318
 20
37.61934997743896
 30
0.0
 10
6.8365584689667
 20
37.34614688173627
 30
0.0
 10
6.701402202773351
 20
37.2138621891948
 30
0.0
 10
6.566586538461478
 20
37.08125074859021
 30
0.0
  0
SPLINE
  5
4289
330
17
100
AcDbEntity
  8
0
 62
     7
370
    15
100
AcDbSpline
210
0.0
220
0.0
230
1.0
 70
     8
 71
     3
 72
    20
 73
    16
 74
     0
 42
0.0000000001
 43
0.0000000001
 40
0.0
 40
0.0
 40
0.0
 40
0.0
 40
0.1249999999999996
 40
0.1249999999999996
 40
0.2499999999999993
 40
0.2499999999999993
 40
0.5000000000000001
 40
0.5000000000000001
 40
0.7500000000000009
 40
0.7500000000000009
 40
0.875000000000001
 40
0.875000000000001
 40
0.9375000000000005
 40
0.9375000000000005
 40
1.0
 40
1.0
 40
1.0
 40
1.0
 10
6.40072115384612
 20
40.13653921012855
 30
0.0
 10
6.486163388718978
 20
40.13440514687016
 30
0.0
 10
6.571265000923517
 20
40.1302430087714
 30
0.0
 10
6.738569645745883
 20
40.1046605261194
 30
0.0
 10
6.821199383517864
 20
40.08578079341572
 30
0.0
 10
7.064539777669097
 20
40.00205782619679
 30
0.0
 10
7.212419479349364
 20
39.91809995867328
 30
0.0
 10
7.472971756953256
 20
39.69767618013992
 30
0.0
 10
7.584869652853171
 20
39.56766047841239
 30
0.0
 10
7.700733628136504
 20
39.33737951246332
 30
0.0
 10
7.729128149484949
 20
39.25679963539625
 30
0.0
 10
7.758187100589793
 20
39.13331465230846
 30
0.0
 10
7.765778714398948
 20
39.09161678140657
 30
0.0
 10
7.774757551200082
 20
39.00663281671319
 30
0.0
 10
7.775860058256284
 20
38.96330935522605
 30
0.0
 10
7.776923076923026
 20
38.92019305628247
 30
0.0
  0
SPLINE
  5
428A
330
17
100
AcDbEntity
  8
0
 62
     7
370
    15
100
AcDbSpline
210
0.0
220
0.0
230
1.0
 70
     8
 71
     3
 72
    22
 73
    18
 74
     0
 42
0.0000000001
 43
0.0000000001
 40
0.0
 40
0.0
 40
0.0
 40
0.0
 40
0.125
 40
0.125
 40
0.25
 40
0.25
 40
0.375
 40
0.375
 40
0.5
 40
0.5
 40
0.625
 40
0.625
 40
0.75
 40
0.75
 40
0.875
 40
0.875
 40
1.0
 40
1.0
 40
1.0
 40
1.0
 10
4.930769230769215
 20
38.75192382551319
 30
0.0
 10
4.9401593134221
 20
38.84501678506598
 30
0.0
 10
4.952007616082823
 20
38.93747439777525
 30
0.0
 10
4.99390087427696
 20
39.11768655108216
 30
0.0
 10
5.019869610235559
 20
39.20649462359762
 30
0.0
 10
5.090681468945149
 20
39.37923253070375
 30
0.0
 10
5.135172656874146
 20
39.46324572768237
 30
0.0
 10
5.240298605313682
 20
39.61695263586051
 30
0.0
 10
5.300538375029077
 20
39.68882900464183
 30
0.0
 10
5.438089380220048
 20
39.81802694196046
 30
0.0
 10
5.512391531204571
 20
39.87475731744718
 30
0.0
 10
5.671332368952448
 20
39.97350137411837
 30
0.0
 10
5.757664786239161
 20
40.01447805475044
 30
0.0
 10
5.934341026708921
 20
40.07716832051829
 30
0.0
 10
6.025127147996272
 20
40.10013985502024
 30
0.0
 10
6.211398247397255
 20
40.13001007966084
 30
0.0
 10
6.306214970975702
 20
40.1342298377088
 30
0.0
 10
6.40072115384612
 20
40.13653921012855
 30
0.0
  0
LINE
  5
428B
330
17
100
AcDbEntity
  8
0
 62
     7
370
    15
100
AcDbLine
 10
13.70769273489713
 20
39.98269270553209
 30
0.0
 11
13.70769273489713
 21
40.59807713522531
 31
0.0
  0
LINE
  5
428C
330
17
100
AcDbEntity
  8
0
 62
     7
370
    15
100
AcDbLine
 10
11.58028841018676
 20
39.98269270553209
 30
0.0
 11
13.70769273489713
 21
39.98269270553209
 31
0.0
  0
LINE
  5
428D
330
17
100
AcDbEntity
  8
0
 62
     7
370
    15
100
AcDbLine
 10
11.21370214968919
 20
38.39735630347349
 30
0.0
 11
11.58028841018676
 21
39.98269270553209
 31
0.0
  0
SPLINE
  5
428E
330
17
100
AcDbEntity
  8
0
 62
     7
370
    15
100
AcDbSpline
210
0.0
220
0.0
230
1.0
 70
     8
 71
     3
 72
    12
 73
     8
 74
     0
 42
0.0000000001
 43
0.0000000001
 40
0.0
 40
0.0
 40
0.0
 40
0.0
 40
0.2499999999999994
 40
0.2499999999999994
 40
0.4999999999999988
 40
0.4999999999999988
 40
1.0
 40
1.0
 40
1.0
 40
1.0
 10
11.95649038461533
 20
38.52115459474402
 30
0.0
 10
11.8934943012166
 20
38.51975581505707
 30
0.0
 10
11.83050084097078
 20
38.51830140483793
 30
0.0
 10
11.70493942553526
 20
38.50636868343491
 30
0.0
 10
11.64270835120874
 20
38.49657759572341
 30
0.0
 10
11.45654035259735
 20
38.46358919635298
 30
0.0
 10
11.33477819023233
 20
38.43188275845006
 30
0.0
 10
11.21370192307688
 20
38.39735651782092
 30
0.0
  0
SPLINE
  5
428F
330
17
100
AcDbEntity
  8
0
 62
     7
370
    15
100
AcDbSpline
210
0.0
220
0.0
230
1.0
 70
     8
 71
     3
 72
    20
 73
    16
 74
     0
 42
0.0000000001
 43
0.0000000001
 40
0.0
 40
0.0
 40
0.0
 40
0.0
 40
0.1249999999999994
 40
0.1249999999999994
 40
0.2499999999999988
 40
0.2499999999999988
 40
0.3749999999999982
 40
0.3749999999999982
 40
0.4999999999999977
 40
0.4999999999999977
 40
0.7499999999999988
 40
0.7499999999999988
 40
0.8749999999999994
 40
0.8749999999999994
 40
1.0
 40
1.0
 40
1.0
 40
1.0
 10
13.93846153846152
 20
36.55841421012855
 30
0.0
 10
13.93571207029743
 20
36.68896469148462
 30
0.0
 10
13.92973310734692
 20
36.81900317062781
 30
0.0
 10
13.88569107735247
 20
37.07399353383477
 30
0.0
 10
13.85281649537432
 20
37.20097209720854
 30
0.0
 10
13.75997710147942
 20
37.44523118543219
 30
0.0
 10
13.69986359729364
 20
37.55978622238689
 30
0.0
 10
13.55661188239571
 20
37.7761605536835
 30
0.0
 10
13.47094565177122
 20
37.87722992854521
 30
0.0
 10
13.19461899477198
 20
38.15254731875501
 30
0.0
 10
12.96957558400345
 20
38.29814366617569
 30
0.0
 10
12.60468403467564
 20
38.43455491770618
 30
0.0
 10
12.4767046697267
 20
38.46801424213351
 30
0.0
 10
12.21855792125223
 20
38.5119828012426
 30
0.0
 10
12.08773343927157
 20
38.51842610199941
 30
0.0
 10
11.95649038461533
 20
38.52115459474402
 30
0.0
  0
SPLINE
  5
4290
330
17
100
AcDbEntity
  8
0
 62
     7
370
    15
100
AcDbSpline
210
0.0
220
0.0
230
1.0
 70
     8
 71
     3
 72
    22
 73
    18
 74
     0
 42
0.0000000001
 43
0.0000000001
 40
0.0
 40
0.0
 40
0.0
 40
0.0
 40
0.2500000000000009
 40
0.2500000000000009
 40
0.3750000000000012
 40
0.3750000000000012
 40
0.5000000000000016
 40
0.5000000000000016
 40
0.6250000000000019
 40
0.6250000000000019
 40
0.7500000000000023
 40
0.7500000000000023
 40
0.8750000000000024
 40
0.8750000000000024
 40
0.9375000000000014
 40
0.9375000000000014
 40
1.0
 40
1.0
 40
1.0
 40
1.0
 10
11.68245192307688
 20
34.44423151782093
 30
0.0
 10
11.97301922935776
 20
34.44663474601401
 30
0.0
 10
12.25742919363983
 20
34.4821908252581
 30
0.0
 10
12.66813791690345
 20
34.62116849734747
 30
0.0
 10
12.80211655078472
 20
34.68104365902894
 30
0.0
 10
13.05108921046394
 20
34.82573100796384
 30
0.0
 10
13.16844358900232
 20
34.91142801740074
 30
0.0
 10
13.38227005446526
 20
35.10804657701664
 30
0.0
 10
13.47592511386642
 20
35.21698403224895
 30
0.0
 10
13.64029666417013
 20
35.45324723225457
 30
0.0
 10
13.71131313070077
 20
35.58146314906577
 30
0.0
 10
13.82569878598883
 20
35.84565409493854
 30
0.0
 10
13.86904538702004
 20
35.98295125580916
 30
0.0
 10
13.91153122322214
 20
36.19719152096258
 30
0.0
 10
13.92189387726591
 20
36.26896475291341
 30
0.0
 10
13.93500519107408
 20
36.4132322968265
 30
0.0
 10
13.93693824931768
 20
36.48580384997553
 30
0.0
 10
13.93846153846152
 20
36.55841421012855
 30
0.0
  0
SPLINE
  5
4291
330
17
100
AcDbEntity
  8
0
 62
     7
370
    15
100
AcDbSpline
210
0.0
220
0.0
230
1.0
 70
     8
 71
     3
 72
    20
 73
    16
 74
     0
 42
0.0000000001
 43
0.0000000001
 40
0.0
 40
0.0
 40
0.0
 40
0.0
 40
0.1250000000000016
 40
0.1250000000000016
 40
0.2500000000000032
 40
0.2500000000000032
 40
0.5000000000000025
 40
0.5000000000000025
 40
0.7500000000000017
 40
0.7500000000000017
 40
0.8750000000000001
 40
0.8750000000000001
 40
0.9375000000000001
 40
0.9375000000000001
 40
1.0
 40
1.0
 40
1.0
 40
1.0
 10
9.707692307692241
 20
36.13653921012855
 30
0.0
 10
9.72727087392468
 20
36.01889042359704
 30
0.0
 10
9.750221472691009
 20
35.90230597054989
 30
0.0
 10
9.820030677086037
 20
35.67668328235067
 30
0.0
 10
9.865315508314552
 20
35.56714830798438
 30
0.0
 10
10.03244109802369
 20
35.24841365578567
 30
0.0
 10
10.18071484767768
 20
35.06498985517936
 30
0.0
 10
10.5434854514225
 20
34.75231374574474
 30
0.0
 10
10.75069445056931
 20
34.63210592942784
 30
0.0
 10
11.09097639367883
 20
34.51600526494388
 30
0.0
 10
11.20687330388409
 20
34.48938588588425
 30
0.0
 10
11.38323447609548
 20
34.46176371640849
 30
0.0
 10
11.44242762354588
 20
34.4545428499635
 30
0.0
 10
11.56210930410213
 20
34.44643792319045
 30
0.0
 10
11.62234517012859
 20
34.4453313392541
 30
0.0
 10
11.68245192307688
 20
34.44423151782093
 30
0.0
  0
LINE
  5
4292
330
17
100
AcDbEntity
  8
0
 62
     7
370
    15
100
AcDbLine
 10
10.32307650893926
 20
36.13653908862688
 30
0.0
 11
9.707692079246044
 21
36.13653908862688
 31
0.0
  0
SPLINE
  5
4293
330
17
100
AcDbEntity
  8
0
 62
     7
370
    15
100
AcDbSpline
210
0.0
220
0.0
230
1.0
 70
     8
 71
     3
 72
    22
 73
    18
 74
     0
 42
0.0000000001
 43
0.0000000001
 40
0.0
 40
0.0
 40
0.0
 40
0.0
 40
0.125
 40
0.125
 40
0.25
 40
0.25
 40
0.375
 40
0.375
 40
0.5
 40
0.5
 40
0.625
 40
0.625
 40
0.75
 40
0.75
 40
0.875
 40
0.875
 40
1.0
 40
1.0
 40
1.0
 40
1.0
 10
11.71850961538462
 20
35.05961613320557
 30
0.0
 10
11.63821843383743
 20
35.06175824963526
 30
0.0
 10
11.55814567782704
 20
35.06508974772845
 30
0.0
 10
11.40132226296737
 20
35.08984239363491
 30
0.0
 10
11.32387495125681
 20
35.10747009242328
 30
0.0
 10
11.17120048272806
 20
35.15481478852877
 30
0.0
 10
11.09606914443202
 20
35.18568524107974
 30
0.0
 10
10.952493940154
 20
35.25507757961412
 30
0.0
 10
10.88393208146044
 20
35.29500693295887
 30
0.0
 10
10.75414667193706
 20
35.38677071409705
 30
0.0
 10
10.69185127963692
 20
35.4387820996563
 30
0.0
 10
10.58074127522434
 20
35.5550661246545
 30
0.0
 10
10.53278275631317
 20
35.61874053964692
 30
0.0
 10
10.45071411175706
 20
35.75617494244949
 30
0.0
 10
10.41647879217658
 20
35.83000995946083
 30
0.0
 10
10.36184937963162
 20
35.98061060048457
 30
0.0
 10
10.34225152961244
 20
36.05850379998214
 30
0.0
 10
10.32307692307688
 20
36.13653921012855
 30
0.0
  0
SPLINE
  5
4294
330
17
100
AcDbEntity
  8
0
 62
     7
370
    15
100
AcDbSpline
210
0.0
220
0.0
230
1.0
 70
     8
 71
     3
 72
    24
 73
    20
 74
     0
 42
0.0000000001
 43
0.0000000001
 40
0.0
 40
0.0
 40
0.0
 40
0.0
 40
0.0624999999999982
 40
0.0624999999999982
 40
0.1249999999999964
 40
0.1249999999999964
 40
0.2499999999999969
 40
0.2499999999999969
 40
0.3749999999999974
 40
0.3749999999999974
 40
0.4999999999999979
 40
0.4999999999999979
 40
0.6249999999999984
 40
0.6249999999999984
 40
0.749999999999999
 40
0.749999999999999
 40
0.8749999999999992
 40
0.8749999999999992
 40
1.0
 40
1.0
 40
1.0
 40
1.0
 10
13.32307692307688
 20
36.58125074859021
 30
0.0
 10
13.32193309824311
 20
36.52970811303936
 30
0.0
 10
13.32077788390359
 20
36.47816733116957
 30
0.0
 10
13.31197502274654
 20
36.3761424330059
 30
0.0
 10
13.3042030891213
 20
36.32567854481471
 30
0.0
 10
13.27471801823958
 20
36.1752909500205
 30
0.0
 10
13.24563979729464
 20
36.07499131275444
 30
0.0
 10
13.16256671495739
 20
35.88742963771182
 30
0.0
 10
13.110850027845
 20
35.79966625379865
 30
0.0
 10
12.98954146134861
 20
35.63470545829006
 30
0.0
 10
12.91871654695546
 20
35.55786603235055
 30
0.0
 10
12.76747500962438
 20
35.41977161783876
 30
0.0
 10
12.68607612690221
 20
35.35781474776553
 30
0.0
 10
12.51177458157838
 20
35.24801732263501
 30
0.0
 10
12.41844054757166
 20
35.20232520053009
 30
0.0
 10
12.22754944220435
 20
35.13010576108758
 30
0.0
 10
12.12894624446437
 20
35.10331220004156
 30
0.0
 10
11.92547829467253
 20
35.06819885587032
 30
0.0
 10
11.82189497640854
 20
35.0622761468332
 30
0.0
 10
11.71850961538462
 20
35.05961613320557
 30
0.0
  0
SPLINE
  5
4295
330
17
100
AcDbEntity
  8
0
 62
     7
370
    15
100
AcDbSpline
210
0.0
220
0.0
230
1.0
 70
     8
 71
     3
 72
    24
 73
    20
 74
     0
 42
0.0000000001
 43
0.0000000001
 40
0.0
 40
0.0
 40
0.0
 40
0.0
 40
0.1250000000000005
 40
0.1250000000000005
 40
0.250000000000001
 40
0.250000000000001
 40
0.3750000000000015
 40
0.3750000000000015
 40
0.500000000000002
 40
0.500000000000002
 40
0.6250000000000025
 40
0.6250000000000025
 40
0.7500000000000031
 40
0.7500000000000031
 40
0.8750000000000035
 40
0.8750000000000035
 40
0.9375000000000017
 40
0.9375000000000017
 40
1.0
 40
1.0
 40
1.0
 40
1.0
 10
11.79543269230771
 20
37.90576997935938
 30
0.0
 10
11.89024078949342
 20
37.9037085661883
 30
0.0
 10
11.98491168355838
 20
37.90071961404687
 30
0.0
 10
12.17177621580947
 20
37.87799463175435
 30
0.0
 10
12.26419727607435
 20
37.85979605089318
 30
0.0
 10
12.44687258650481
 20
37.80875052842856
 30
0.0
 10
12.53577231732265
 20
37.77281999020255
 30
0.0
 10
12.70498929921825
 20
37.68926010354738
 30
0.0
 10
12.78504937242451
 20
37.63770612157902
 30
0.0
 10
12.93332160597447
 20
37.51760419254509
 30
0.0
 10
13.00055991863166
 20
37.45141158929522
 30
0.0
 10
13.11915844052419
 20
37.30488890174849
 30
0.0
 10
13.16931927492533
 20
37.22181563288956
 30
0.0
 10
13.24887241747842
 20
37.04977067794863
 30
0.0
 10
13.27697050507231
 20
36.95943219538725
 30
0.0
 10
13.30548720160311
 20
36.81888708588423
 30
0.0
 10
13.31301299132019
 20
36.77162937468546
 30
0.0
 10
13.32135187175186
 20
36.67673246706744
 30
0.0
 10
13.32221523428347
 20
36.62899168182679
 30
0.0
 10
13.32307692307688
 20
36.58125074859021
 30
0.0
  0
SPLINE
  5
4296
330
17
100
AcDbEntity
  8
0
 62
     7
370
    15
100
AcDbSpline
210
0.0
220
0.0
230
1.0
 70
     8
 71
     3
 72
    14
 73
    10
 74
     0
 42
0.0000000001
 43
0.0000000001
 40
0.0
 40
0.0
 40
0.0
 40
0.0
 40
0.5000000000000006
 40
0.5000000000000006
 40
0.7500000000000009
 40
0.7500000000000009
 40
0.8750000000000003
 40
0.8750000000000003
 40
1.0
 40
1.0
 40
1.0
 40
1.0
 10
10.39999999999998
 20
37.59807767166711
 30
0.0
 10
10.62499180181498
 20
37.6806498570067
 30
0.0
 10
10.85272342674125
 20
37.75628107077165
 30
0.0
 10
11.20254968948325
 20
37.84008338442999
 30
0.0
 10
11.31982215188532
 20
37.86302688216739
 30
0.0
 10
11.49703782785514
 20
37.88761456365927
 30
0.0
 10
11.55629080144285
 20
37.89444885442703
 30
0.0
 10
11.67544112626217
 20
37.90327218065244
 30
0.0
 10
11.73542811630898
 20
37.90458719684585
 30
0.0
 10
11.79543269230771
 20
37.90576997935938
 30
0.0
  0
LINE
  5
4297
330
17
100
AcDbEntity
  8
0
 62
     7
370
    15
100
AcDbLine
 10
11.09230797737837
 20
40.59807713522531
 30
0.0
 11
10.4000000283122
 21
37.59807850613214
 31
0.0
  0
LINE
  5
4298
330
17
100
AcDbEntity
  8
0
 62
     7
370
    15
100
AcDbLine
 10
13.70769273489713
 20
40.59807713522531
 30
0.0
 11
11.09230797737837
 21
40.59807713522531
 31
0.0
  0
LINE
  5
4299
330
17
100
AcDbEntity
  8
0
 62
     7
370
    15
100
AcDbLine
 10
-8.323077112436294
 20
39.98269270553209
 30
0.0
 11
-8.323077112436294
 21
40.59807713522531
 31
0.0
  0
LINE
  5
429A
330
17
100
AcDbEntity
  8
0
 62
     7
370
    15
100
AcDbLine
 10
-10.93846186995506
 20
39.98269270553209
 30
0.0
 11
-8.323077112436294
 21
39.98269270553209
 31
0.0
  0
LINE
  5
429B
330
17
100
AcDbEntity
  8
0
 62
     7
370
    15
100
AcDbLine
 10
-10.93846186995506
 20
38.13653941645242
 30
0.0
 11
-10.93846186995506
 21
39.98269270553209
 31
0.0
  0
LINE
  5
429C
330
17
100
AcDbEntity
  8
0
 62
     7
370
    15
100
AcDbLine
 10
-8.323077112436294
 20
38.13653941645242
 30
0.0
 11
-10.93846186995506
 21
38.13653941645242
 31
0.0
  0
LINE
  5
429D
330
17
100
AcDbEntity
  8
0
 62
     7
370
    15
100
AcDbLine
 10
-8.323077112436294
 20
37.5211549867592
 30
0.0
 11
-8.323077112436294
 21
38.13653941645242
 31
0.0
  0
LINE
  5
429E
330
17
100
AcDbEntity
  8
0
 62
     7
370
    15
100
AcDbLine
 10
-10.93846186995506
 20
37.5211549867592
 30
0.0
 11
-8.323077112436294
 21
37.5211549867592
 31
0.0
  0
LINE
  5
429F
330
17
100
AcDbEntity
  8
0
 62
     7
370
    15
100
AcDbLine
 10
-10.93846186995506
 20
34.59807615174867
 30
0.0
 11
-10.93846186995506
 21
37.5211549867592
 31
0.0
  0
LINE
  5
42A0
330
17
100
AcDbEntity
  8
0
 62
     7
370
    15
100
AcDbLine
 10
-11.55384629964828
 20
34.59807615174867
 30
0.0
 11
-10.93846186995506
 21
34.59807615174867
 31
0.0
  0
LINE
  5
42A1
330
17
100
AcDbEntity
  8
0
 62
     7
370
    15
100
AcDbLine
 10
-11.55384629964828
 20
40.59807713522531
 30
0.0
 11
-11.55384629964828
 21
34.59807615174867
 31
0.0
  0
LINE
  5
42A2
330
17
100
AcDbEntity
  8
0
 62
     7
370
    15
100
AcDbLine
 10
-8.323077112436294
 20
40.59807713522531
 30
0.0
 11
-11.55384629964828
 21
40.59807713522531
 31
0.0
  0
LINE
  5
42A3
330
17
100
AcDbEntity
  8
0
 62
     7
370
    15
100
AcDbLine
 10
-1.307692262344062
 20
40.59807713522531
 30
0.0
 11
-1.923076924867928
 21
40.59807713522531
 31
0.0
  0
LINE
  5
42A4
330
17
100
AcDbEntity
  8
0
 62
     7
370
    15
100
AcDbLine
 10
-1.307692262344062
 20
37.00312543108083
 30
0.0
 11
-1.307692262344062
 21
40.59807713522531
 31
0.0
  0
SPLINE
  5
42A5
330
17
100
AcDbEntity
  8
0
 62
     7
370
    15
100
AcDbSpline
210
0.0
220
0.0
230
1.0
 70
     8
 71
     3
 72
    10
 73
     6
 74
     0
 42
0.0000000001
 43
0.0000000001
 40
0.0
 40
0.0
 40
0.0
 40
0.0
 40
0.5
 40
0.5
 40
1.0
 40
1.0
 40
1.0
 40
1.0
 10
-1.28125
 20
36.20504882551319
 30
0.0
 10
-1.298810956317311
 20
36.33712205176272
 30
0.0
 10
-1.301046161472868
 20
36.47048565027416
 30
0.0
 10
-1.307797072498715
 20
36.73674115598391
 30
0.0
 10
-1.30794421394421
 20
36.8699448425312
 30
0.0
 10
-1.307692307692377
 20
37.00312574859021
 30
0.0
  0
SPLINE
  5
42A6
330
17
100
AcDbEntity
  8
0
 62
     7
370
    15
100
AcDbSpline
210
0.0
220
0.0
230
1.0
 70
     8
 71
     3
 72
    18
 73
    14
 74
     0
 42
0.0000000001
 43
0.0000000001
 40
0.0
 40
0.0
 40
0.0
 40
0.0
 40
0.1249999999999989
 40
0.1249999999999989
 40
0.2499999999999977
 40
0.2499999999999977
 40
0.4999999999999983
 40
0.4999999999999983
 40
0.7499999999999987
 40
0.7499999999999987
 40
0.8749999999999992
 40
0.8749999999999992
 40
1.0
 40
1.0
 40
1.0
 40
1.0
 10
0.2235576923076223
 20
35.05961613320557
 30
0.0
 10
0.1367029314482124
 20
35.06214326335902
 30
0.0
 10
0.0500239857561837
 20
35.06559021182574
 30
0.0
 10
-0.1197660092694832
 20
35.09115039596526
 30
0.0
 10
-0.2033275557705565
 20
35.11090674997132
 30
0.0
 10
-0.4510768275217743
 20
35.18553287733329
 30
0.0
 10
-0.6115068612648429
 20
35.25608276466341
 30
0.0
 10
-0.9042750078400558
 20
35.4397655399668
 30
0.0
 10
-1.033255927532763
 20
35.56270597236249
 30
0.0
 10
-1.16434305085886
 20
35.78828288394305
 30
0.0
 10
-1.198432446399692
 20
35.86762507939801
 30
0.0
 10
-1.250969640296375
 20
36.0330665828298
 30
0.0
 10
-1.266714819204935
 20
36.11919857252877
 30
0.0
 10
-1.28125
 20
36.20504882551319
 30
0.0
  0
SPLINE
  5
42A7
330
17
100
AcDbEntity
  8
0
 62
     7
370
    15
100
AcDbSpline
210
0.0
220
0.0
230
1.0
 70
     8
 71
     3
 72
    20
 73
    16
 74
     0
 42
0.0000000001
 43
0.0000000001
 40
0.0
 40
0.0
 40
0.0
 40
0.0
 40
0.125
 40
0.125
 40
0.25
 40
0.25
 40
0.3750000000000001
 40
0.3750000000000001
 40
0.5000000000000001
 40
0.5000000000000001
 40
0.7500000000000002
 40
0.7500000000000002
 40
0.8750000000000001
 40
0.8750000000000001
 40
1.0
 40
1.0
 40
1.0
 40
1.0
 10
1.626201923076905
 20
36.07163536397474
 30
0.0
 10
1.602537011169829
 20
35.99764332319575
 30
0.0
 10
1.577917572088267
 20
35.92410729433681
 30
0.0
 10
1.512412433326289
 20
35.78480621362797
 30
0.0
 10
1.474631622172864
 20
35.71755784499413
 30
0.0
 10
1.386164962440602
 20
35.58922630768274
 30
0.0
 10
1.33548432439079
 20
35.53001375941091
 30
0.0
 10
1.225635869277539
 20
35.4224835646998
 30
0.0
 10
1.16730196467779
 20
35.3723846358784
 30
0.0
 10
0.9758050146996311
 20
35.23982393264879
 30
0.0
 10
0.8332952838194387
 20
35.17360210395799
 30
0.0
 10
0.6107406051046383
 20
35.10558470443817
 30
0.0
 10
0.5340956514128266
 20
35.08751431464992
 30
0.0
 10
0.3796704468968528
 20
35.0655547186704
 30
0.0
 10
0.3016458470422094
 20
35.06228374203153
 30
0.0
 10
0.2235576923076223
 20
35.05961613320557
 30
0.0
  0
SPLINE
  5
42A8
330
17
100
AcDbEntity
  8
0
 62
     7
370
    15
100
AcDbSpline
210
0.0
220
0.0
230
1.0
 70
     8
 71
     3
 72
    10
 73
     6
 74
     0
 42
0.0000000001
 43
0.0000000001
 40
0.0
 40
0.0
 40
0.0
 40
0.0
 40
0.5
 40
0.5
 40
1.0
 40
1.0
 40
1.0
 40
1.0
 10
1.692307692307736
 20
37.00312574859021
 30
0.0
 10
1.691272432335267
 20
36.84716038329992
 30
0.0
 10
1.690718298990873
 20
36.69118375871045
 30
0.0
 10
1.674003018451799
 20
36.37956257155901
 30
0.0
 10
1.665956512815682
 20
36.22289909745081
 30
0.0
 10
1.626201923076905
 20
36.07163536397474
 30
0.0
  0
LINE
  5
42A9
330
17
100
AcDbEntity
  8
0
 62
     7
370
    15
100
AcDbLine
 10
1.692307647317647
 20
40.59807713522531
 30
0.0
 11
1.692307647317647
 21
37.00312543108083
 31
0.0
  0
LINE
  5
42AA
330
17
100
AcDbEntity
  8
0
 62
     7
370
    15
100
AcDbLine
 10
2.307692309841513
 20
40.59807713522531
 30
0.0
 11
1.692307647317647
 21
40.59807713522531
 31
0.0
  0
LINE
  5
42AB
330
17
100
AcDbEntity
  8
0
 62
     7
370
    15
100
AcDbLine
 10
2.307692309841513
 20
36.97428050829984
 30
0.0
 11
2.307692309841513
 21
40.59807713522531
 31
0.0
  0
SPLINE
  5
42AC
330
17
100
AcDbEntity
  8
0
 62
     7
370
    15
100
AcDbSpline
210
0.0
220
0.0
230
1.0
 70
     8
 71
     3
 72
    26
 73
    22
 74
     0
 42
0.0000000001
 43
0.0000000001
 40
0.0
 40
0.0
 40
0.0
 40
0.0
 40
0.0624999999999988
 40
0.0624999999999988
 40
0.1249999999999976
 40
0.1249999999999976
 40
0.2499999999999964
 40
0.2499999999999964
 40
0.3749999999999953
 40
0.3749999999999953
 40
0.4999999999999944
 40
0.4999999999999944
 40
0.5624999999999939
 40
0.5624999999999939
 40
0.6249999999999936
 40
0.6249999999999936
 40
0.7499999999999957
 40
0.7499999999999957
 40
0.8749999999999978
 40
0.8749999999999978
 40
1.0
 40
1.0
 40
1.0
 40
1.0
 10
0.2572115384615472
 20
34.44423151782093
 30
0.0
 10
0.3352328638198969
 20
34.44587102368979
 30
0.0
 10
0.4132126455672278
 20
34.44777004092015
 30
0.0
 10
0.5676216466102915
 20
34.46125400691113
 30
0.0
 10
0.6441481951320612
 20
34.47223096712054
 30
0.0
 10
0.8718028707169196
 20
34.51718659877355
 30
0.0
 10
1.023462285597588
 20
34.56381638705688
 30
0.0
 10
1.303441513719803
 20
34.69496797131473
 30
0.0
 10
1.433312793548793
 20
34.77719792353724
 30
0.0
 10
1.675147941899126
 20
34.97113233316685
 30
0.0
 10
1.787141092949241
 20
35.0810113484186
 30
0.0
 10
1.9297873919528
 20
35.26232420278376
 30
0.0
 10
1.974296852700945
 20
35.3251406728271
 30
0.0
 10
2.051371266127148
 20
35.46012253001635
 30
0.0
 10
2.086307918009765
 20
35.5306605684786
 30
0.0
 10
2.171019518205071
 20
35.74673672098737
 30
0.0
 10
2.207549682903504
 20
35.89717534509356
 30
0.0
 10
2.263936955655026
 20
36.20273719866413
 30
0.0
 10
2.280312856098589
 20
36.35644661458383
 30
0.0
 10
2.302653221927585
 20
36.6646834461132
 30
0.0
 10
2.306934680609401
 20
36.8193430912333
 30
0.0
 10
2.307692307692263
 20
36.97427959474402
 30
0.0
  0
SPLINE
  5
42AD
330
17
100
AcDbEntity
  8
0
 62
     7
370
    15
100
AcDbSpline
210
0.0
220
0.0
230
1.0
 70
     8
 71
     3
 72
    22
 73
    18
 74
     0
 42
0.0000000001
 43
0.0000000001
 40
0.0
 40
0.0
 40
0.0
 40
0.0
 40
0.0624999999999995
 40
0.0624999999999995
 40
0.124999999999999
 40
0.124999999999999
 40
0.2499999999999982
 40
0.2499999999999982
 40
0.4999999999999964
 40
0.4999999999999964
 40
0.6249999999999973
 40
0.6249999999999973
 40
0.7499999999999982
 40
0.7499999999999982
 40
0.8749999999999991
 40
0.8749999999999991
 40
1.0
 40
1.0
 40
1.0
 40
1.0
 10
-1.805288461538452
 20
35.70985651782093
 30
0.0
 10
-1.78705981998496
 20
35.65893410957966
 30
0.0
 10
-1.768792658633969
 20
35.6080323262683
 30
0.0
 10
-1.726039131495326
 20
35.50955875262076
 30
0.0
 10
-1.701923839742562
 20
35.46178827546822
 30
0.0
 10
-1.624329792241951
 20
35.32128691029465
 30
0.0
 10
-1.561847575284559
 20
35.23237726636188
 30
0.0
 10
-1.349099703070123
 20
34.98620098962835
 30
0.0
 10
-1.178395387398495
 20
34.85048353487235
 30
0.0
 10
-0.8950316303888712
 20
34.69154057900636
 30
0.0
 10
-0.7978804873891932
 20
34.64449700684742
 30
0.0
 10
-0.5953755540282373
 20
34.56847085667226
 30
0.0
 10
-0.4907635798545016
 20
34.53612724429019
 30
0.0
 10
-0.2798245013597125
 20
34.48930775136415
 30
0.0
 10
-0.1736317340468076
 20
34.47127070154448
 30
0.0
 10
0.0406799322620373
 20
34.44950539566224
 30
0.0
 10
0.1489027813416897
 20
34.44654936110527
 30
0.0
 10
0.2572115384615472
 20
34.44423151782093
 30
0.0
  0
SPLINE
  5
42AE
330
17
100
AcDbEntity
  8
0
 62
     7
370
    15
100
AcDbSpline
210
0.0
220
0.0
230
1.0
 70
     8
 71
     3
 72
    14
 73
    10
 74
     0
 42
0.0000000001
 43
0.0000000001
 40
0.0
 40
0.0
 40
0.0
 40
0.0
 40
0.5000000000000047
 40
0.5000000000000047
 40
0.7500000000000071
 40
0.7500000000000071
 40
0.8750000000000033
 40
0.8750000000000033
 40
1.0
 40
1.0
 40
1.0
 40
1.0
 10
-1.923076923076905
 20
36.97427959474402
 30
0.0
 10
-1.921153240483249
 20
36.76195845320075
 30
0.0
 10
-1.919384341938666
 20
36.54962437219666
 30
0.0
 10
-1.896459504374888
 20
36.23174291319975
 30
0.0
 10
-1.888002880347471
 20
36.12584208072752
 30
0.0
 10
-1.865665103566243
 20
35.9679755266539
 30
0.0
 10
-1.856902877919424
 20
35.91563721691381
 30
0.0
 10
-1.8354146579303
 20
35.81181542885423
 30
0.0
 10
-1.820763516672741
 20
35.760747130178
 30
0.0
 10
-1.805288461538452
 20
35.70985651782093
 30
0.0
  0
LINE
  5
42AF
330
17
100
AcDbEntity
  8
0
 62
     7
370
    15
100
AcDbLine
 10
-1.923076924867928
 20
40.59807713522531
 30
0.0
 11
-1.923076924867928
 21
36.97428050829984
 31
0.0
  0
LINE
  5
42B0
330
17
100
AcDbEntity
  8
0
 62
     7
370
    15
100
AcDbLine
 10
-6.0076923109591
 20
40.59807713522531
 30
0.0
 11
-6.623076740652322
 21
40.59807713522531
 31
0.0
  0
LINE
  5
42B1
330
17
100
AcDbEntity
  8
0
 62
     7
370
    15
100
AcDbLine
 10
-6.0076923109591
 20
35.21346058144189
 30
0.0
 11
-6.0076923109591
 21
40.59807713522531
 31
0.0
  0
LINE
  5
42B2
330
17
100
AcDbEntity
  8
0
 62
     7
370
    15
100
AcDbLine
 10
-3.469230839982628
 20
35.21346058144189
 30
0.0
 11
-6.0076923109591
 21
35.21346058144189
 31
0.0
  0
LINE
  5
42B3
330
17
100
AcDbEntity
  8
0
 62
     7
370
    15
100
AcDbLine
 10
-3.469230839982628
 20
34.59807615174867
 30
0.0
 11
-3.469230839982628
 21
35.21346058144189
 31
0.0
  0
LINE
  5
42B4
330
17
100
AcDbEntity
  8
0
 62
     7
370
    15
100
AcDbLine
 10
-6.623076740652322
 20
34.59807615174867
 30
0.0
 11
-3.469230839982628
 21
34.59807615174867
 31
0.0
  0
LINE
  5
42B5
330
17
100
AcDbEntity
  8
0
 62
     7
370
    15
100
AcDbLine
 10
-6.623076740652322
 20
40.59807713522531
 30
0.0
 11
-6.623076740652322
 21
34.59807615174867
 31
0.0
  0
SPLINE
  5
42BC
330
17
100
AcDbEntity
  8
0
 62
     7
370
    15
100
AcDbSpline
210
0.0
220
0.0
230
1.0
 70
     8
 71
     3
 72
    28
 73
    24
 74
     0
 42
0.0000000001
 43
0.0000000001
 40
0.0
 40
0.0
 40
0.0
 40
0.0
 40
0.125
 40
0.125
 40
0.1875
 40
0.1875
 40
0.25
 40
0.25
 40
0.3749999999999992
 40
0.3749999999999992
 40
0.4374999999999988
 40
0.4374999999999988
 40
0.4999999999999984
 40
0.4999999999999984
 40
0.6249999999999976
 40
0.6249999999999976
 40
0.6874999999999977
 40
0.6874999999999977
 40
0.7499999999999978
 40
0.7499999999999978
 40
0.8749999999999989
 40
0.8749999999999989
 40
1.0
 40
1.0
 40
1.0
 40
1.0
 10
38.39390945142077
 20
23.59807767166711
 30
0.0
 10
38.2510503669838
 20
23.59807767166711
 30
0.0
 10
38.12283548805533
 20
23.64146538764698
 30
0.0
 10
37.94934596308258
 20
23.77182373833108
 30
0.0
 10
37.89466749365613
 20
23.82621458946466
 30
0.0
 10
37.79121314116742
 20
23.95765805057516
 30
0.0
 10
37.74226147933564
 20
24.03517487376252
 30
0.0
 10
37.6063321330455
 20
24.29802422321467
 30
0.0
 10
37.52933471993652
 20
24.51401343858942
 30
0.0
 10
37.42992563710629
 20
24.89902284405486
 30
0.0
 10
37.39948704247149
 20
25.03758826060533
 30
0.0
 10
37.34343723106417
 20
25.33590953257425
 30
0.0
 10
37.31795868742529
 20
25.49521106554033
 30
0.0
 10
37.249249079474
 20
25.99487782597754
 30
0.0
 10
37.21310200696235
 20
26.35972914000689
 30
0.0
 10
37.16912790396111
 20
26.95477665738662
 30
0.0
 10
37.15614092625685
 20
27.16223162419118
 30
0.0
 10
37.13338082143434
 20
27.58798062176533
 30
0.0
 10
37.12361060513433
 20
27.80572432418416
 30
0.0
 10
37.09813977911927
 20
28.47318807320045
 30
0.0
 10
37.08621328327775
 20
28.93701616010486
 30
0.0
 10
37.06907774921058
 20
29.90340506749902
 30
0.0
 10
37.0640066866896
 20
30.39903424304549
 30
0.0
 10
37.06155973166881
 20
30.90083172968576
 30
0.0
  0
LINE
  5
42BD
330
17
100
AcDbEntity
  8
0
 62
     7
370
    15
100
AcDbLine
 10
38.39391097426414
 20
23.59807621135332
 30
0.0
 11
-38.39391097426414
 21
23.59807621135332
 31
0.0
  0
SPLINE
  5
42BE
330
17
100
AcDbEntity
  8
0
 62
     7
370
    15
100
AcDbSpline
210
0.0
220
0.0
230
1.0
 70
     8
 71
     3
 72
    26
 73
    22
 74
     0
 42
0.0000000001
 43
0.0000000001
 40
0.0
 40
0.0
 40
0.0
 40
0.0
 40
0.1249999999999993
 40
0.1249999999999993
 40
0.1874999999999987
 40
0.1874999999999987
 40
0.2499999999999981
 40
0.2499999999999981
 40
0.3749999999999984
 40
0.3749999999999984
 40
0.4999999999999988
 40
0.4999999999999988
 40
0.6249999999999991
 40
0.6249999999999991
 40
0.6874999999999996
 40
0.6874999999999996
 40
0.7500000000000001
 40
0.7500000000000001
 40
0.875
 40
0.875
 40
1.0
 40
1.0
 40
1.0
 40
1.0
 10
-37.06155973166881
 20
30.90083172968576
 30
0.0
 10
-37.06400571456436
 20
30.39923359693109
 30
0.0
 10
-37.06902662188236
 20
29.90966353042353
 30
0.0
 10
-37.0816518869816
 20
29.19263656875791
 30
0.0
 10
-37.08672709850248
 20
28.95653537217555
 30
0.0
 10
-37.09904867964872
 20
28.49026334867284
 30
0.0
 10
-37.10634259561334
 20
28.25904840234063
 30
0.0
 10
-37.13188397115596
 20
27.58732705998529
 30
0.0
 10
-37.15375375565077
 20
27.16563660216974
 30
0.0
 10
-37.21187322533945
 20
26.37362888229148
 30
0.0
 10
-37.24863527622574
 20
26.0005161888435
 30
0.0
 10
-37.33991995674785
 20
25.33435050157863
 30
0.0
 10
-37.39445719554226
 20
25.03824768604039
 30
0.0
 10
-37.49410097936834
 20
24.64958967068407
 30
0.0
 10
-37.53050209059257
 20
24.52890367644676
 30
0.0
 10
-37.60877771200376
 20
24.31058987904663
 30
0.0
 10
-37.65072018963895
 20
24.21249510350043
 30
0.0
 10
-37.78576671419955
 20
23.95045015788975
 30
0.0
 10
-37.88839583268828
 20
23.81822975902668
 30
0.0
 10
-38.12207444985757
 20
23.64143856256175
 30
0.0
 10
-38.2510775748342
 20
23.59807767166711
 30
0.0
 10
-38.39390945142077
 20
23.59807767166711
 30
0.0
  0
LINE
  5
42C9
330
17
100
AcDbEntity
  8
0
 62
     7
370
    15
100
AcDbLine
 10
-38.39391097426414
 20
23.59807621135332
 30
0.0
 11
-41.90733656287193
 21
23.59807621135332
 31
0.0
  0
LINE
  5
42CC
330
17
100
AcDbEntity
  8
0
 62
     7
370
    15
100
AcDbLine
 10
41.90733656287193
 20
23.59807621135332
 30
0.0
 11
38.39391097426414
 21
23.59807621135332
 31
0.0
  0
SPLINE
  5
42CE
330
17
100
AcDbEntity
  8
0
 62
     7
370
    15
100
AcDbSpline
210
0.0
220
0.0
230
1.0
 70
     8
 71
     3
 72
    26
 73
    22
 74
     0
 42
0.0000000001
 43
0.0000000001
 40
0.0
 40
0.0
 40
0.0
 40
0.0
 40
0.1249999999999992
 40
0.1249999999999992
 40
0.1874999999999985
 40
0.1874999999999985
 40
0.2499999999999979
 40
0.2499999999999979
 40
0.3749999999999982
 40
0.3749999999999982
 40
0.4999999999999984
 40
0.4999999999999984
 40
0.6249999999999987
 40
0.6249999999999987
 40
0.6874999999999987
 40
0.6874999999999987
 40
0.7499999999999986
 40
0.7499999999999986
 40
0.8749999999999992
 40
0.8749999999999992
 40
1.0
 40
1.0
 40
1.0
 40
1.0
 10
49.87689566097981
 20
30.90083172968576
 30
0.0
 10
49.83301151071805
 20
30.39923359693109
 30
0.0
 10
49.74288796716678
 20
29.90966353042365
 30
0.0
 10
49.54117716295707
 20
29.19263656875791
 30
0.0
 10
49.46277752617288
 20
28.95653537217555
 30
0.0
 10
49.28323809829795
 20
28.49026334867284
 30
0.0
 10
49.18149938099896
 20
28.25904840234063
 30
0.0
 10
48.84736949741682
 20
27.58732705998529
 30
0.0
 10
48.58567210286139
 20
27.16563660216974
 30
0.0
 10
47.98613845566353
 20
26.37362888229148
 30
0.0
 10
47.64437679324851
 20
26.0005161888435
 30
0.0
 10
46.90854090487346
 20
25.33435050157863
 30
0.0
 10
46.51321749384908
 20
25.03824768604039
 30
0.0
 10
45.87972881264784
 20
24.64958967068407
 30
0.0
 10
45.66072642350661
 20
24.52890367644676
 30
0.0
 10
45.21697049276281
 20
24.31058987904663
 30
0.0
 10
44.99166062612448
 20
24.21249510350043
 30
0.0
 10
44.30594084913389
 20
23.95045015788975
 30
0.0
 10
43.83429292889729
 20
23.81822975902668
 30
0.0
 10
42.87226430939836
 20
23.64143856256175
 30
0.0
 10
42.3900813180046
 20
23.59807767166711
 30
0.0
 10
41.90733807624588
 20
23.59807767166711
 30
0.0
  0
SPLINE
  5
42CF
330
17
100
AcDbEntity
  8
0
 62
     7
370
    15
100
AcDbSpline
210
0.0
220
0.0
230
1.0
 70
     8
 71
     3
 72
    28
 73
    24
 74
     0
 42
0.0000000001
 43
0.0000000001
 40
0.0
 40
0.0
 40
0.0
 40
0.0
 40
0.1250000000000007
 40
0.1250000000000007
 40
0.1875000000000011
 40
0.1875000000000011
 40
0.2500000000000015
 40
0.2500000000000015
 40
0.3750000000000008
 40
0.3750000000000008
 40
0.4375000000000012
 40
0.4375000000000012
 40
0.5000000000000016
 40
0.5000000000000016
 40
0.6250000000000025
 40
0.6250000000000025
 40
0.6875000000000023
 40
0.6875000000000023
 40
0.750000000000002
 40
0.750000000000002
 40
0.875000000000001
 40
0.875000000000001
 40
1.0
 40
1.0
 40
1.0
 40
1.0
 10
-41.90733807624588
 20
23.59807767166711
 30
0.0
 10
-42.39017327510999
 20
23.59807767166711
 30
0.0
 10
-42.86967300789024
 20
23.64146538764698
 30
0.0
 10
-43.58310394911234
 20
23.77182373833108
 30
0.0
 10
-43.81993817814588
 20
23.82621458946466
 30
0.0
 10
-44.29142761565538
 20
23.95765805057516
 30
0.0
 10
-44.52707205583635
 20
24.03517487376252
 30
0.0
 10
-45.21660371490907
 20
24.29802422321467
 30
0.0
 10
-45.6568100151693
 20
24.51401343858942
 30
0.0
 10
-46.28721146327791
 20
24.89902284405486
 30
0.0
 10
-46.4923324008729
 20
25.03758826060533
 30
0.0
 10
-46.89205917849881
 20
25.33590953257425
 30
0.0
 10
-47.08582729741067
 20
25.49521106554033
 30
0.0
 10
-47.63892399925668
 20
25.99487782597754
 30
0.0
 10
-47.97430018484578
 20
26.35972914000689
 30
0.0
 10
-48.42668135853784
 20
26.95477665738662
 30
0.0
 10
-48.56962673482541
 20
27.16223162419107
 30
0.0
 10
-48.83423795840918
 20
27.58798062176533
 30
0.0
 10
-48.95573253900306
 20
27.80572432418416
 30
0.0
 10
-49.28855062274237
 20
28.47318807320045
 30
0.0
 10
-49.46848327538328
 20
28.93701616010486
 30
0.0
 10
-49.74189293631536
 20
29.90340506749902
 30
0.0
 10
-49.832994069513
 20
30.39903424304549
 30
0.0
 10
-49.87689566097981
 20
30.90083172968588
 30
0.0
  0
LWPOLYLINE
  5
42D2
330
17
100
AcDbEntity
  8
0
 62
     7
370
    15
100
AcDbPolyline
 90
        4
 70
   128
 43
0.0
 10
50.98477751016616
 20
43.56399308337785
 10
50.61480775475502
 20
39.33522235049821
 10
50.24534463882446
 20
35.11224071874238
 10
49.87689480185508
 20
30.90083356394388
  0
LWPOLYLINE
  5
42D4
330
17
100
AcDbEntity
  8
0
 62
     7
370
    15
100
AcDbPolyline
 90
        4
 70
   128
 43
0.0
 10
-49.87689480185508
 20
30.90083356394388
 10
-50.24534463882446
 20
35.11224071874238
 10
-50.61480775475502
 20
39.33522235049821
 10
-50.98477751016616
 20
43.56399308337785
  0
LINE
  5
42D7
330
17
100
AcDbEntity
  8
0
 62
     7
370
    15
100
AcDbLine
 10
-50.98477751016616
 20
43.56399308337785
 30
0.0
 11
-52.00712382793426
 21
55.24945482059337
 31
0.0
  0
LINE
  5
42D8
330
17
100
AcDbEntity
  8
0
 62
     7
370
    15
100
AcDbLine
 10
52.00712382793426
 20
55.24945482059337
 30
0.0
 11
50.98477751016616
 21
43.56399308337785
 31
0.0
  0
SPLINE
  5
42E1
330
17
100
AcDbEntity
  8
0
 62
     7
370
    15
100
AcDbSpline
210
0.0
220
0.0
230
1.0
 70
     8
 71
     3
 72
    14
 73
    10
 74
     0
 42
0.0000000001
 43
0.0000000001
 40
0.0
 40
0.0
 40
0.0
 40
0.0
 40
0.123513851477581
 40
0.247104340005707
 40
0.4922743770858423
 40
0.6944190587770139
 40
0.8972161775277402
 40
0.9981662792542294
 40
1.0
 40
1.0
 40
1.0
 40
1.0
 10
42.52123087644577
 20
71.77238901524759
 30
0.0
 10
42.2369011214256
 20
71.78767167192479
 30
0.0
 10
41.6680651923558
 20
71.81824646775993
 30
0.0
 10
40.57003247096611
 20
72.12105293045152
 30
0.0
 10
39.40005495140713
 20
72.75472672411405
 30
0.0
 10
38.28850484207874
 20
73.76199786431863
 30
0.0
 10
37.54955258979828
 20
74.66015550447735
 30
0.0
 10
37.13891792877382
 20
75.22812025042566
 30
0.0
 10
37.00243540128417
 20
75.42033703978081
 30
0.0
 10
37.00000047683716
 20
75.42376629455901
 30
0.0
  0
SPLINE
  5
42E4
330
17
100
AcDbEntity
  8
0
 62
     7
370
    15
100
AcDbSpline
210
0.0
220
0.0
230
1.0
 70
     8
 71
     3
 72
    14
 73
    10
 74
     0
 42
0.0000000001
 43
0.0000000001
 40
0.0
 40
0.0
 40
0.0
 40
0.0
 40
0.0018337207457704
 40
0.1027838224722596
 40
0.3055809412229862
 40
0.5077256229141577
 40
0.752895659994293
 40
0.8764861485224189
 40
1.0
 40
1.0
 40
1.0
 40
1.0
 10
-37.00000047683716
 20
75.42376629455901
 30
0.0
 10
-37.00243540128417
 20
75.42033703978081
 30
0.0
 10
-37.13891792877371
 20
75.22812025042566
 30
0.0
 10
-37.5495525897984
 20
74.66015550447735
 30
0.0
 10
-38.28850484207874
 20
73.76199786431863
 30
0.0
 10
-39.40005495140713
 20
72.75472672411405
 30
0.0
 10
-40.57003247096611
 20
72.12105293045152
 30
0.0
 10
-41.66806519235592
 20
71.81824646775993
 30
0.0
 10
-42.2369011214256
 20
71.78767167192479
 30
0.0
 10
-42.52123087644577
 20
71.77238901524759
 30
0.0
  0
ELLIPSE
  5
42E6
330
17
100
AcDbEntity
  8
0
 62
     7
370
    15
100
AcDbEllipse
 10
-47.0
 20
90.63216147654584
 30
0.0
 11
0.0
 21
114.3005230276134
 31
0.0
210
0.0
220
0.0
230
1.0
 40
0.0874886635259241
 41
4.712388980384687
 42
4.779483289572947
  0
ELLIPSE
  5
42E8
330
17
100
AcDbEntity
  8
0
 62
     7
370
    15
100
AcDbEllipse
 10
47.0
 20
90.63216147654628
 30
0.0
 11
0.0
 21
114.3005230276134
 31
0.0
210
0.0
220
0.0
230
1.0
 40
0.0874886635259241
 41
1.503702017606644
 42
1.570796326794902
  0
LINE
  5
42E9
330
17
100
AcDbEntity
  8
0
 62
     7
370
    15
100
AcDbLine
 10
37.00000047683716
 20
75.42376629455901
 30
0.0
 11
37.00000047683716
 21
90.63216056122389
 31
0.0
  0
LINE
  5
42EA
330
17
100
AcDbEntity
  8
0
 62
     7
370
    15
100
AcDbLine
 10
44.66523602604866
 20
71.77238901524759
 30
0.0
 11
42.52123087644577
 21
71.77238901524759
 31
0.0
  0
LINE
  5
42ED
330
17
100
AcDbEntity
  8
0
 62
     7
370
    15
100
AcDbLine
 10
-42.52123087644577
 20
71.77238901524759
 30
0.0
 11
-44.66523602604866
 21
71.77238901524759
 31
0.0
  0
LINE
  5
42EE
330
17
100
AcDbEntity
  8
0
 62
     7
370
    15
100
AcDbLine
 10
-37.00000047683716
 20
90.63216056122389
 30
0.0
 11
-37.00000047683716
 21
75.42376629455901
 31
0.0
  0
ELLIPSE
  5
42EF
330
17
100
AcDbEntity
  8
0
 62
     7
370
    15
100
AcDbEllipse
 10
44.6194866455495
 20
71.59807767166711
 30
0.0
 11
8.015321827676586
 21
0.1740658564136482
 31
0.0
210
0.0
220
0.0
230
1.0
 40
0.0216135471244883
 41
0.0014188699860018
 42
1.564619000234345
  0
LINE
  5
42F0
330
17
100
AcDbEntity
  8
0
 62
     7
370
    15
100
AcDbLine
 10
52.63479426503181
 20
71.77238901524759
 30
0.0
 11
52.99999937415122
 21
67.59807771916456
 31
0.0
  0
LINE
  5
42F1
330
17
100
AcDbEntity
  8
0
 62
     7
370
    15
100
AcDbLine
 10
-52.99999937415122
 20
67.59807771916456
 30
0.0
 11
-52.63479426503181
 21
71.77238901524759
 31
0.0
  0
ELLIPSE
  5
42F2
330
17
100
AcDbEntity
  8
0
 62
     7
370
    15
100
AcDbEllipse
 10
-44.6194866455495
 20
71.59807767166711
 30
0.0
 11
8.015321827676594
 21
-0.174065856413705
 31
0.0
210
0.0
220
0.0
230
1.0
 40
0.0216135471244882
 41
1.576973653355448
 42
3.14017378360413
  0
SPLINE
  5
4307
330
17
100
AcDbEntity
  8
0
 62
     7
370
    15
100
AcDbSpline
210
0.0
220
0.0
230
1.0
 70
     8
 71
     3
 72
    16
 73
    12
 74
     0
 42
0.0000000001
 43
0.0000000001
 40
0.0
 40
0.0
 40
0.0
 40
0.0
 40
0.1074237252869467
 40
0.2176710893656476
 40
0.3296154621120507
 40
0.4449237088768868
 40
0.5521204799124143
 40
0.6622514432966748
 40
0.7697663548797692
 40
0.8802033144445962
 40
1.0
 40
1.0
 40
1.0
 40
1.0
 10
-38.1496362388134
 20
105.5980784763297
 30
0.0
 10
-38.04579077514347
 20
105.5794424533342
 30
0.0
 10
-37.83537026382408
 20
105.541680558408
 30
0.0
 10
-37.5876182031493
 20
105.2274445036684
 30
0.0
 10
-37.38793306298408
 20
104.710581138473
 30
0.0
 10
-37.24497637704678
 20
103.9931873808825
 30
0.0
 10
-37.14720317270894
 20
103.1045835353872
 30
0.0
 10
-37.08580055513631
 20
102.0908347826554
 30
0.0
 10
-37.04929124785963
 20
100.9472498478433
 30
0.0
 10
-37.02898462176927
 20
99.67918924003079
 30
0.0
 10
-37.02472014885439
 20
98.76894771188284
 30
0.0
 10
-37.02250123023987
 20
98.29532484902944
 30
0.0
  0
LINE
  5
430A
330
17
100
AcDbEntity
  8
0
 62
     7
370
    15
100
AcDbLine
 10
-38.1496362388134
 20
105.5980784763297
 30
0.0
 11
38.1496362388134
 21
105.5980784763297
 31
0.0
  0
SPLINE
  5
430B
330
17
100
AcDbEntity
  8
0
 62
     7
370
    15
100
AcDbSpline
210
0.0
220
0.0
230
1.0
 70
     8
 71
     3
 72
    16
 73
    12
 74
     0
 42
0.0000000001
 43
0.0000000001
 40
0.0
 40
0.0
 40
0.0
 40
0.0
 40
0.1103191927950533
 40
0.2237890382110327
 40
0.3339218876032328
 40
0.4472145512749247
 40
0.5548717373535597
 40
0.6655137504885853
 40
0.768330084143658
 40
0.8737136086898606
 40
1.0
 40
1.0
 40
1.0
 40
1.0
 10
37.02250123023987
 20
98.29532484902944
 30
0.0
 10
37.02449577628204
 20
98.73150104325993
 30
0.0
 10
37.0285418314528
 20
99.61631037266393
 30
0.0
 10
37.04756643550161
 20
100.8758409278875
 30
0.0
 10
37.0839916094169
 20
102.0553985710278
 30
0.0
 10
37.14588170610398
 20
103.0917312647088
 30
0.0
 10
37.24319831823232
 20
103.9781976613214
 30
0.0
 10
37.37942131002217
 20
104.6708810096506
 30
0.0
 10
37.56365891708174
 20
105.175245112852
 30
0.0
 10
37.80614844431841
 20
105.5259563864098
 30
0.0
 10
38.0284543147701
 20
105.5726339226582
 30
0.0
 10
38.1496362388134
 20
105.5980784763297
 30
0.0
  0
LINE
  5
431A
330
17
100
AcDbEntity
  8
0
 62
     7
370
    15
100
AcDbLine
 10
-42.34478250145912
 20
105.5980784763297
 30
0.0
 11
-38.1496362388134
 21
105.5980784763297
 31
0.0
  0
LINE
  5
431C
330
17
100
AcDbEntity
  8
0
 62
     7
370
    15
100
AcDbLine
 10
38.1496362388134
 20
105.5980784763297
 30
0.0
 11
42.34478250145912
 21
105.5980784763297
 31
0.0
  0
SPLINE
  5
4326
330
17
100
AcDbEntity
  8
0
 62
     7
370
    15
100
AcDbSpline
210
0.0
220
0.0
230
1.0
 70
     8
 71
     3
 72
    14
 73
    10
 74
     0
 42
0.0000000001
 43
0.0000000001
 40
0.0
 40
0.0
 40
0.0
 40
0.0
 40
0.1235136063847406
 40
0.2471043797250533
 40
0.4922742260351061
 40
0.694418946741102
 40
0.897216277992892
 40
0.998166240491049
 40
1.0
 40
1.0
 40
1.0
 40
1.0
 10
-52.63479426503181
 20
71.77238901524759
 30
0.0
 10
-52.63345744245555
 20
71.78767178341985
 30
0.0
 10
-52.63078296210323
 20
71.81824686790008
 30
0.0
 10
-52.60429222400489
 20
72.12105213473609
 30
0.0
 10
-52.54885179007624
 20
72.75472674774841
 30
0.0
 10
-52.46073204856031
 20
73.76199996928
 30
0.0
 10
-52.38212646688634
 20
74.66015018675221
 30
0.0
 10
-52.33248449326016
 20
75.22812454519663
 30
0.0
 10
-52.31563996843624
 20
75.42033704054671
 30
0.0
 10
-52.31533944606781
 20
75.42376629455901
 30
0.0
  0
SPLINE
  5
4327
330
17
100
AcDbEntity
  8
0
 62
     7
370
    15
100
AcDbSpline
210
0.0
220
0.0
230
1.0
 70
     8
 71
     3
 72
    14
 73
    10
 74
     0
 42
0.0000000001
 43
0.0000000001
 40
0.0
 40
0.0
 40
0.0
 40
0.0
 40
0.001833759508951
 40
0.1027837220071079
 40
0.3055810532588981
 40
0.5077257739648939
 40
0.7528956202749466
 40
0.8764863936152593
 40
0.9999999999999998
 40
0.9999999999999998
 40
0.9999999999999998
 40
0.9999999999999998
 10
52.31533944606781
 20
75.42376629455901
 30
0.0
 10
52.31563996843624
 20
75.42033704054671
 30
0.0
 10
52.33248449326026
 20
75.22812454519663
 30
0.0
 10
52.38212646688634
 20
74.66015018675221
 30
0.0
 10
52.46073204856043
 20
73.76199996928
 30
0.0
 10
52.54885179007624
 20
72.75472674774841
 30
0.0
 10
52.60429222400478
 20
72.12105213473609
 30
0.0
 10
52.63078296210323
 20
71.81824686790008
 30
0.0
 10
52.63345744245555
 20
71.78767178341985
 30
0.0
 10
52.63479426503181
 20
71.77238901524759
 30
0.0
  0
SPLINE
  5
4328
330
17
100
AcDbEntity
  8
0
 62
     7
370
    15
100
AcDbSpline
210
0.0
220
0.0
230
1.0
 70
     8
 71
     3
 72
    16
 73
    12
 74
     0
 42
0.0000000001
 43
0.0000000001
 40
0.0
 40
0.0
 40
0.0
 40
0.0
 40
0.1118942448626977
 40
0.2237874867753898
 40
0.3355011466437232
 40
0.4472111399970558
 40
0.5563606210228225
 40
0.6655086982663156
 40
0.769605143828914
 40
0.8737085822971822
 40
1.0
 40
1.0
 40
1.0
 40
1.0
 10
-50.31434074044227
 20
98.29532484902944
 30
0.0
 10
-50.25353482265803
 20
98.73760771472104
 30
0.0
 10
-50.13192353211571
 20
99.62216948175734
 30
0.0
 10
-49.6761101164758
 20
100.8875991089259
 30
0.0
 10
-49.02862192498742
 20
102.0599016029862
 30
0.0
 10
-48.2021465045043
 20
103.1011240482019
 30
0.0
 10
-47.22356061677021
 20
103.9806862209894
 30
0.0
 10
-46.14614316623636
 20
104.6765666042287
 30
0.0
 10
-44.99594577175173
 20
105.1758118965955
 30
0.0
 10
-43.72548311289722
 20
105.5266130334538
 30
0.0
 10
-42.8336452652203
 20
105.5727748054049
 30
0.0
 10
-42.34478250145912
 20
105.5980784763297
 30
0.0
  0
SPLINE
  5
432A
330
17
100
AcDbEntity
  8
0
 62
     7
370
    15
100
AcDbSpline
210
0.0
220
0.0
230
1.0
 70
     8
 71
     3
 72
    16
 73
    12
 74
     0
 42
0.0000000001
 43
0.0000000001
 40
0.0
 40
0.0
 40
0.0
 40
0.0
 40
0.108843301695934
 40
0.2176704223838059
 40
0.3312964105850841
 40
0.4449194839664678
 40
0.5535814021057705
 40
0.662246359425318
 40
0.7712213007044976
 40
0.8801981793442768
 40
1.0
 40
1.0
 40
1.0
 40
1.0
 10
42.34478250145912
 20
105.5980784763297
 30
0.0
 10
42.76563619534181
 20
105.5785621445603
 30
0.0
 10
43.607281017594
 20
105.5395323823842
 30
0.0
 10
44.87262198558039
 20
105.2243765435772
 30
0.0
 10
46.09578987756572
 20
104.7058095559998
 30
0.0
 10
47.22229721251608
 20
103.9862000524237
 30
0.0
 10
48.19930357861085
 20
103.0992101881779
 30
0.0
 10
49.01450472936983
 20
102.0815903935915
 30
0.0
 10
49.64751542424574
 20
100.9412487820282
 30
0.0
 10
50.12225735809284
 20
99.67356649917343
 30
0.0
 10
50.24832460469724
 20
98.76900553266006
 30
0.0
 10
50.31434074044227
 20
98.29532484902944
 30
0.0
  0
LWPOLYLINE
  5
432D
330
17
100
AcDbEntity
  8
0
 62
     7
370
    15
100
AcDbPolyline
 90
        4
 70
   128
 43
0.0
 10
-50.98477751016616
 20
90.63216056122389
 10
-50.76114833354949
 20
93.18825359835233
 10
-50.53763091564178
 20
95.74306699826326
 10
-50.31434074044227
 20
98.29532484902944
  0
LWPOLYLINE
  5
432F
330
17
100
AcDbEntity
  8
0
 62
     7
370
    15
100
AcDbPolyline
 90
        4
 70
   128
 43
0.0
 10
50.31434074044227
 20
98.29532484902944
 10
50.53763091564178
 20
95.74306699826326
 10
50.76114833354949
 20
93.18825359835233
 10
50.98477751016616
 20
90.63216056122389
  0
LINE
  5
4331
330
17
100
AcDbEntity
  8
0
 62
     7
370
    15
100
AcDbLine
 10
-52.31533944606781
 20
75.42376629455901
 30
0.0
 11
-50.98477751016616
 21
90.63216056122389
 31
0.0
  0
LINE
  5
4333
330
17
100
AcDbEntity
  8
0
 62
     7
370
    15
100
AcDbLine
 10
50.98477751016616
 20
90.63216056122389
 30
0.0
 11
52.31533944606781
 21
75.42376629455901
 31
0.0
  0
LINE
  5
4334
330
17
100
AcDbEntity
  8
0
 62
     7
370
    15
100
AcDbLine
 10
-4.999999888241291
 20
106.5980767775973
 30
0.0
 11
-4.999999888241291
 21
105.5980784763297
 31
0.0
  0
LINE
  5
4335
330
17
100
AcDbEntity
  8
0
 62
     7
370
    15
100
AcDbLine
 10
-4.999999888241291
 20
106.5980767775973
 30
0.0
 11
4.999999888241291
 21
106.5980767775973
 31
0.0
  0
LINE
  5
4336
330
17
100
AcDbEntity
  8
0
 62
     7
370
    15
100
AcDbLine
 10
4.999999888241291
 20
106.5980767775973
 30
0.0
 11
4.999999888241291
 21
105.5980784763297
 31
0.0
  0
LINE
  5
4337
330
17
100
AcDbEntity
  8
0
 62
     7
370
    15
100
AcDbLine
 10
-15.75000025331974
 20
106.5980767775973
 30
0.0
 11
-15.75000025331974
 21
105.5980784763297
 31
0.0
  0
LINE
  5
4338
330
17
100
AcDbEntity
  8
0
 62
     7
370
    15
100
AcDbLine
 10
-15.75000025331974
 20
106.5980767775973
 30
0.0
 11
-4.999999888241291
 21
106.5980767775973
 31
0.0
  0
LINE
  5
4339
330
17
100
AcDbEntity
  8
0
 62
     7
370
    15
100
AcDbLine
 10
5.75000001117587
 20
106.5980767775973
 30
0.0
 11
5.75000001117587
 21
105.5980784763297
 31
0.0
  0
LINE
  5
433A
330
17
100
AcDbEntity
  8
0
 62
     7
370
    15
100
AcDbLine
 10
15.75000025331974
 20
106.5980767775973
 30
0.0
 11
15.75000025331974
 21
105.5980784763297
 31
0.0
  0
LINE
  5
433B
330
17
100
AcDbEntity
  8
0
 62
     7
370
    15
100
AcDbLine
 10
5.75000001117587
 20
106.5980767775973
 30
0.0
 11
15.75000025331974
 21
106.5980767775973
 31
0.0
  0
LINE
  5
433C
330
17
100
AcDbEntity
  8
0
 62
     7
370
    15
100
AcDbLine
 10
4.999999888241291
 20
106.5980767775973
 30
0.0
 11
5.75000001117587
 21
106.5980767775973
 31
0.0
  0
LINE
  5
433D
330
17
100
AcDbEntity
  8
0
 62
     7
370
    15
100
AcDbLine
 10
-45.499999076128
 20
64.09807772754646
 30
0.0
 11
-45.499999076128
 21
67.59807771916456
 31
0.0
  0
LINE
  5
433E
330
17
100
AcDbEntity
  8
0
 62
     7
370
    15
100
AcDbLine
 10
-45.499999076128
 20
64.09807772754646
 30
0.0
 11
-54.49999868869781
 21
64.09807772754646
 31
0.0
  0
LINE
  5
433F
330
17
100
AcDbEntity
  8
0
 62
     7
370
    15
100
AcDbLine
 10
-54.49999868869781
 20
64.09807772754646
 30
0.0
 11
-54.49999868869781
 21
67.59807771916456
 31
0.0
  0
LINE
  5
4340
330
17
100
AcDbEntity
  8
0
 62
     7
370
    15
100
AcDbLine
 10
-45.499999076128
 20
67.59807771916456
 30
0.0
 11
-54.49999868869781
 21
67.59807771916456
 31
0.0
  0
LINE
  5
4341
330
17
100
AcDbEntity
  8
0
 62
     7
370
    15
100
AcDbLine
 10
45.499999076128
 20
64.09807772754646
 30
0.0
 11
45.499999076128
 21
67.59807771916456
 31
0.0
  0
LINE
  5
4342
330
17
100
AcDbEntity
  8
0
 62
     7
370
    15
100
AcDbLine
 10
45.499999076128
 20
64.09807772754646
 30
0.0
 11
-45.499999076128
 21
64.09807772754646
 31
0.0
  0
LINE
  5
4343
330
17
100
AcDbEntity
  8
0
 62
     7
370
    15
100
AcDbLine
 10
45.499999076128
 20
67.59807771916456
 30
0.0
 11
-45.499999076128
 21
67.59807771916456
 31
0.0
  0
LINE
  5
4344
330
17
100
AcDbEntity
  8
0
 62
     7
370
    15
100
AcDbLine
 10
54.49999868869781
 20
64.09807772754646
 30
0.0
 11
54.49999868869781
 21
67.59807771916456
 31
0.0
  0
LINE
  5
4345
330
17
100
AcDbEntity
  8
0
 62
     7
370
    15
100
AcDbLine
 10
54.49999868869781
 20
64.09807772754646
 30
0.0
 11
45.499999076128
 21
64.09807772754646
 31
0.0
  0
LINE
  5
4346
330
17
100
AcDbEntity
  8
0
 62
     7
370
    15
100
AcDbLine
 10
54.49999868869781
 20
67.59807771916456
 30
0.0
 11
45.499999076128
 21
67.59807771916456
 31
0.0
  0
LINE
  5
4349
330
17
100
AcDbEntity
  8
0
370
    15
100
AcDbLine
 10
3.0
 20
-21.40192378864668
 30
0.0
 11
3.0
 21
-28.40192378864669
 31
0.0
  0
LINE
  5
434A
330
17
100
AcDbEntity
  8
0
370
    15
100
AcDbLine
 10
-3.0
 20
-21.40192378864668
 30
0.0
 11
-3.0
 21
-28.40192378864669
 31
0.0
  0
LINE
  5
434B
330
17
100
AcDbEntity
  8
0
370
    15
100
AcDbLine
 10
-3.0
 20
-28.40192378864669
 30
0.0
 11
3.0
 21
-28.40192378864669
 31
0.0
  0
LINE
  5
434C
330
17
100
AcDbEntity
  8
0
370
    15
100
AcDbLine
 10
-2.0
 20
-29.40192378864669
 30
0.0
 11
2.0
 21
-29.40192378864669
 31
0.0
  0
ARC
  5
434D
330
17
100
AcDbEntity
  8
0
370
    15
100
AcDbCircle
 10
-16.77817459305197
 20
-47.12374919559471
 30
0.0
 40
18.77817459305205
100
AcDbArc
 50
315.0
 51
0.0
  0
ARC
  5
434E
330
17
100
AcDbEntity
  8
0
370
    15
100
AcDbCircle
 10
-16.77817459305197
 20
-47.12374919559471
 30
0.0
 40
14.77817459305206
100
AcDbArc
 50
315.0
 51
0.0
  0
LINE
  5
434F
330
17
100
AcDbEntity
  8
0
370
    15
100
AcDbLine
 10
-6.328427124746099
 20
-57.57349666390059
 30
0.0
 11
-3.5
 21
-60.40192378864674
 31
0.0
  0
LINE
  5
4350
330
17
100
AcDbEntity
  8
0
370
    15
100
AcDbLine
 10
-2.0
 20
-29.40192378864669
 30
0.0
 11
-2.0
 21
-47.12374919559471
 31
0.0
  0
LINE
  5
4351
330
17
100
AcDbEntity
  8
0
370
    15
100
AcDbLine
 10
-3.0
 20
-28.40192378864669
 30
0.0
 11
-2.0
 21
-29.40192378864669
 31
0.0
  0
LINE
  5
4352
330
17
100
AcDbEntity
  8
0
370
    15
100
AcDbLine
 10
2.5
 20
-44.90192378864668
 30
0.0
 11
2.5
 21
-88.40192378864674
 31
0.0
  0
LINE
  5
4353
330
17
100
AcDbEntity
  8
0
370
    15
100
AcDbLine
 10
2.0
 20
-47.12374919559471
 30
0.0
 11
2.0
 21
-88.40192378864674
 31
0.0
  0
LINE
  5
4354
330
17
100
AcDbEntity
  8
0
370
    15
100
AcDbLine
 10
2.0
 20
-88.40192378864674
 30
0.0
 11
2.5
 21
-88.40192378864674
 31
0.0
  0
LINE
  5
4355
330
17
100
AcDbEntity
  8
0
370
    15
100
AcDbLine
 10
2.5
 20
-36.90192378864669
 30
0.0
 11
2.5
 21
-41.90192378864668
 31
0.0
  0
LINE
  5
4356
330
17
100
AcDbEntity
  8
0
370
    15
100
AcDbLine
 10
2.0
 20
-30.40192378864669
 30
0.0
 11
2.0
 21
-47.12374919559471
 31
0.0
  0
LINE
  5
4357
330
17
100
AcDbEntity
  8
0
370
    15
100
AcDbLine
 10
2.5
 20
-41.90192378864668
 30
0.0
 11
2.5
 21
-44.90192378864668
 31
0.0
  0
LINE
  5
4358
330
17
100
AcDbEntity
  8
0
370
    15
100
AcDbLine
 10
3.0
 20
-41.90192378864668
 30
0.0
 11
3.0
 21
-44.90192378864668
 31
0.0
  0
LINE
  5
4359
330
17
100
AcDbEntity
  8
0
370
    15
100
AcDbLine
 10
2.5
 20
-44.90192378864668
 30
0.0
 11
3.0
 21
-44.90192378864668
 31
0.0
  0
LINE
  5
435A
330
17
100
AcDbEntity
  8
0
370
    15
100
AcDbLine
 10
2.5
 20
-41.90192378864668
 30
0.0
 11
3.0
 21
-41.90192378864668
 31
0.0
  0
LINE
  5
435B
330
17
100
AcDbEntity
  8
0
370
    15
100
AcDbLine
 10
2.0
 20
-29.40192378864669
 30
0.0
 11
2.0
 21
-30.40192378864669
 31
0.0
  0
LINE
  5
435C
330
17
100
AcDbEntity
  8
0
370
    15
100
AcDbLine
 10
2.5
 20
-33.90192378864668
 30
0.0
 11
2.5
 21
-36.90192378864669
 31
0.0
  0
LINE
  5
435D
330
17
100
AcDbEntity
  8
0
370
    15
100
AcDbLine
 10
2.5
 20
-30.40192378864669
 30
0.0
 11
2.5
 21
-33.90192378864668
 31
0.0
  0
LINE
  5
435E
330
17
100
AcDbEntity
  8
0
370
    15
100
AcDbLine
 10
4.0
 20
-33.90192378864668
 30
0.0
 11
4.0
 21
-34.90192378864668
 31
0.0
  0
LINE
  5
435F
330
17
100
AcDbEntity
  8
0
370
    15
100
AcDbLine
 10
4.0
 20
-35.90192378864669
 30
0.0
 11
4.0
 21
-36.90192378864669
 31
0.0
  0
LINE
  5
4360
330
17
100
AcDbEntity
  8
0
370
    15
100
AcDbLine
 10
3.5
 20
-34.90192378864668
 30
0.0
 11
3.5
 21
-35.90192378864669
 31
0.0
  0
LINE
  5
4361
330
17
100
AcDbEntity
  8
0
370
    15
100
AcDbLine
 10
3.5
 20
-34.90192378864668
 30
0.0
 11
4.0
 21
-34.90192378864668
 31
0.0
  0
LINE
  5
4362
330
17
100
AcDbEntity
  8
0
370
    15
100
AcDbLine
 10
3.5
 20
-35.90192378864669
 30
0.0
 11
4.0
 21
-35.90192378864669
 31
0.0
  0
LINE
  5
4363
330
17
100
AcDbEntity
  8
0
370
    15
100
AcDbLine
 10
2.5
 20
-36.90192378864669
 30
0.0
 11
4.0
 21
-36.90192378864669
 31
0.0
  0
LINE
  5
4364
330
17
100
AcDbEntity
  8
0
370
    15
100
AcDbLine
 10
2.5
 20
-33.90192378864668
 30
0.0
 11
4.0
 21
-33.90192378864668
 31
0.0
  0
LINE
  5
4365
330
17
100
AcDbEntity
  8
0
370
    15
100
AcDbLine
 10
2.0
 20
-30.40192378864669
 30
0.0
 11
2.5
 21
-30.40192378864669
 31
0.0
  0
LINE
  5
4366
330
17
100
AcDbEntity
  8
0
370
    15
100
AcDbLine
 10
2.0
 20
-29.40192378864669
 30
0.0
 11
3.0
 21
-28.40192378864669
 31
0.0
  0
LINE
  5
4367
330
17
100
AcDbEntity
  8
0
370
    15
100
AcDbLine
 10
-15.0
 20
-21.40192378864668
 30
0.0
 11
15.0
 21
-21.40192378864668
 31
0.0
  0
LINE
  5
4368
330
17
100
AcDbEntity
  8
0
370
    15
100
AcDbLine
 10
-16.5
 20
-20.53589838486238
 30
0.0
 11
16.5
 21
-20.53589838486226
 31
0.0
  0
LINE
  5
4369
330
17
100
AcDbEntity
  8
0
370
    15
100
AcDbLine
 10
16.5
 20
0.0000000000000568
 30
0.0
 11
-16.5
 21
-0.0000000000000568
 31
0.0
  0
LINE
  5
436A
330
17
100
AcDbEntity
  8
0
370
    15
100
AcDbLine
 10
-16.5
 20
2.598076211353316
 30
0.0
 11
16.5
 21
2.598076211353316
 31
0.0
  0
ARC
  5
436B
330
17
100
AcDbEntity
  8
0
370
    15
100
AcDbCircle
 10
0.0
 20
35.07969745424379
 30
0.0
 40
32.4816212428905
100
AcDbArc
 50
252.412046226009
 51
287.587953773991
  0
LINE
  5
436C
330
17
100
AcDbEntity
  8
0
370
    15
100
AcDbLine
 10
-19.62990915244722
 20
17.59807621135331
 30
0.0
 11
19.62990915244734
 21
17.59807621135331
 31
0.0
  0
LINE
  5
436D
330
17
100
AcDbEntity
  8
0
370
    15
100
AcDbLine
 10
-24.0
 20
23.59807621135332
 30
0.0
 11
24.0
 21
23.59807621135332
 31
0.0
  0
LINE
  5
436E
330
17
100
AcDbEntity
  8
0
370
    15
100
AcDbLine
 10
-9.814954576223613
 20
4.11645496846296
 30
0.0
 11
-9.814954576223613
 21
17.59807621135331
 31
0.0
  0
LINE
  5
436F
330
17
100
AcDbEntity
  8
0
370
    15
100
AcDbLine
 10
-19.62990915244722
 20
4.11645496846296
 30
0.0
 11
-19.62990915244722
 21
17.59807621135331
 31
0.0
  0
LINE
  5
4370
330
17
100
AcDbEntity
  8
0
370
    15
100
AcDbLine
 10
-16.5
 20
2.598076211353316
 30
0.0
 11
-15.0
 21
-0.0000000000000568
 31
0.0
  0
LINE
  5
4371
330
17
100
AcDbEntity
  8
0
370
    15
100
AcDbLine
 10
-15.0
 20
-21.4019237886468
 30
0.0
 11
-16.5
 21
-20.53589838486238
 31
0.0
  0
ARC
  5
4372
330
17
100
AcDbEntity
  8
0
370
    15
100
AcDbCircle
 10
-14.72243186433536
 20
11.287873555992
 30
0.0
 40
8.68979734463873
100
AcDbArc
 50
235.6157525319541
 51
304.3842474680387
  0
LINE
  5
4373
330
17
100
AcDbEntity
  8
0
370
    15
100
AcDbLine
 10
-16.5
 20
2.598076211353316
 30
0.0
 11
-16.5
 21
-20.53589838486238
 31
0.0
  0
LINE
  5
4374
330
17
100
AcDbEntity
  8
0
370
    15
100
AcDbLine
 10
-17.0
 20
2.598076211353316
 30
0.0
 11
-16.5
 21
2.598076211353316
 31
0.0
  0
LINE
  5
4375
330
17
100
AcDbEntity
  8
0
370
    15
100
AcDbLine
 10
-19.62990915244722
 20
4.11645496846296
 30
0.0
 11
-17.0
 21
2.598076211353316
 31
0.0
  0
LINE
  5
4376
330
17
100
AcDbEntity
  8
0
370
    15
100
AcDbLine
 10
-15.0
 20
-0.0000000000000568
 30
0.0
 11
-15.0
 21
-21.40192378864668
 31
0.0
  0
LINE
  5
4377
330
17
100
AcDbEntity
  8
0
370
    15
100
AcDbLine
 10
-24.0
 20
23.59807621135332
 30
0.0
 11
-24.0
 21
17.59807621135331
 31
0.0
  0
LINE
  5
4378
330
17
100
AcDbEntity
  8
0
370
    15
100
AcDbLine
 10
-24.0
 20
17.59807621135331
 30
0.0
 11
-19.62990915244722
 21
17.59807621135331
 31
0.0
  0
LINE
  5
4379
330
17
100
AcDbEntity
  8
0
370
    15
100
AcDbLine
 10
9.814954576223726
 20
4.11645496846296
 30
0.0
 11
9.814954576223726
 21
17.59807621135331
 31
0.0
  0
LINE
  5
437A
330
17
100
AcDbEntity
  8
0
370
    15
100
AcDbLine
 10
19.62990915244734
 20
4.11645496846296
 30
0.0
 11
19.62990915244734
 21
17.59807621135331
 31
0.0
  0
LINE
  5
437B
330
17
100
AcDbEntity
  8
0
370
    15
100
AcDbLine
 10
16.5
 20
2.598076211353316
 30
0.0
 11
17.0
 21
2.598076211353316
 31
0.0
  0
ARC
  5
437C
330
17
100
AcDbEntity
  8
0
370
    15
100
AcDbCircle
 10
14.72243186433547
 20
11.287873555992
 30
0.0
 40
8.689797344638693
100
AcDbArc
 50
235.6157525319613
 51
304.3842474680459
  0
LINE
  5
437D
330
17
100
AcDbEntity
  8
0
370
    15
100
AcDbLine
 10
15.0
 20
0.0000000000000568
 30
0.0
 11
15.0
 21
-21.40192378864668
 31
0.0
  0
LINE
  5
437E
330
17
100
AcDbEntity
  8
0
370
    15
100
AcDbLine
 10
16.5
 20
2.598076211353316
 30
0.0
 11
16.5
 21
-20.53589838486226
 31
0.0
  0
LINE
  5
437F
330
17
100
AcDbEntity
  8
0
370
    15
100
AcDbLine
 10
15.0
 20
-21.40192378864668
 30
0.0
 11
16.5
 21
-20.53589838486226
 31
0.0
  0
LINE
  5
4380
330
17
100
AcDbEntity
  8
0
370
    15
100
AcDbLine
 10
16.5
 20
2.598076211353316
 30
0.0
 11
15.0
 21
-0.0000000000000568
 31
0.0
  0
LINE
  5
4381
330
17
100
AcDbEntity
  8
0
370
    15
100
AcDbLine
 10
19.62990915244734
 20
4.11645496846296
 30
0.0
 11
17.0
 21
2.598076211353316
 31
0.0
  0
LINE
  5
4382
330
17
100
AcDbEntity
  8
0
370
    15
100
AcDbLine
 10
24.0
 20
23.59807621135332
 30
0.0
 11
24.0
 21
17.59807621135331
 31
0.0
  0
LINE
  5
4383
330
17
100
AcDbEntity
  8
0
370
    15
100
AcDbLine
 10
19.62990915244734
 20
17.59807621135331
 30
0.0
 11
24.0
 21
17.59807621135331
 31
0.0
  0
LINE
  5
43F0
330
17
100
AcDbEntity
  8
0
370
    15
100
AcDbLine
 10
42.499999076128
 20
71.78946274561638
 30
0.0
 11
48.49999907612801
 21
71.78946274561638
 31
0.0
  0
LINE
  5
43F1
330
17
100
AcDbEntity
  8
0
370
    15
100
AcDbLine
 10
42.499999076128
 20
74.78946274561637
 30
0.0
 11
44.499999076128
 21
74.78946274561637
 31
0.0
  0
LINE
  5
43F2
330
17
100
AcDbEntity
  8
0
370
    15
100
AcDbLine
 10
46.49999907612801
 20
74.78946274561637
 30
0.0
 11
48.49999907612801
 21
74.78946274561637
 31
0.0
  0
LINE
  5
43F3
330
17
100
AcDbEntity
  8
0
370
    15
100
AcDbLine
 10
44.499999076128
 20
73.78946274561638
 30
0.0
 11
46.49999907612801
 21
73.78946274561638
 31
0.0
  0
LINE
  5
43F4
330
17
100
AcDbEntity
  8
0
370
    15
100
AcDbLine
 10
44.499999076128
 20
73.78946274561638
 30
0.0
 11
44.499999076128
 21
74.78946274561637
 31
0.0
  0
LINE
  5
43F5
330
17
100
AcDbEntity
  8
0
370
    15
100
AcDbLine
 10
46.49999907612801
 20
73.78946274561638
 30
0.0
 11
46.49999907612801
 21
74.78946274561637
 31
0.0
  0
LINE
  5
43F6
330
17
100
AcDbEntity
  8
0
370
    15
100
AcDbLine
 10
48.49999907612801
 20
71.78946274561638
 30
0.0
 11
48.49999907612801
 21
74.78946274561637
 31
0.0
  0
LINE
  5
43F7
330
17
100
AcDbEntity
  8
0
370
    15
100
AcDbLine
 10
42.499999076128
 20
71.78946274561638
 30
0.0
 11
42.499999076128
 21
74.78946274561637
 31
0.0
  0
LINE
  5
43F8
330
17
100
AcDbEntity
  8
0
370
    15
100
AcDbLine
 10
-48.49999907612801
 20
71.78946274561639
 30
0.0
 11
-42.499999076128
 21
71.78946274561639
 31
0.0
  0
LINE
  5
43F9
330
17
100
AcDbEntity
  8
0
370
    15
100
AcDbLine
 10
-48.49999907612801
 20
74.78946274561639
 30
0.0
 11
-46.49999907612801
 21
74.78946274561639
 31
0.0
  0
LINE
  5
43FA
330
17
100
AcDbEntity
  8
0
370
    15
100
AcDbLine
 10
-44.499999076128
 20
74.78946274561639
 30
0.0
 11
-42.499999076128
 21
74.78946274561639
 31
0.0
  0
LINE
  5
43FB
330
17
100
AcDbEntity
  8
0
370
    15
100
AcDbLine
 10
-46.49999907612801
 20
73.78946274561639
 30
0.0
 11
-44.499999076128
 21
73.78946274561639
 31
0.0
  0
LINE
  5
43FC
330
17
100
AcDbEntity
  8
0
370
    15
100
AcDbLine
 10
-46.49999907612801
 20
73.78946274561639
 30
0.0
 11
-46.49999907612801
 21
74.78946274561639
 31
0.0
  0
LINE
  5
43FD
330
17
100
AcDbEntity
  8
0
370
    15
100
AcDbLine
 10
-44.499999076128
 20
73.78946274561639
 30
0.0
 11
-44.499999076128
 21
74.78946274561639
 31
0.0
  0
LINE
  5
43FE
330
17
100
AcDbEntity
  8
0
370
    15
100
AcDbLine
 10
-42.499999076128
 20
71.78946274561639
 30
0.0
 11
-42.499999076128
 21
74.78946274561639
 31
0.0
  0
LINE
  5
43FF
330
17
100
AcDbEntity
  8
0
370
    15
100
AcDbLine
 10
-48.49999907612801
 20
71.78946274561639
 30
0.0
 11
-48.49999907612801
 21
74.78946274561639
 31
0.0
  0
ENDSEC
  0
SECTION
  2
OBJECTS
  0
DICTIONARY
  5
C
330
0
100
AcDbDictionary
281
     1
  3
ACAD_COLOR
350
3DA1
  3
ACAD_GROUP
350
D
  3
ACAD_IMAGE_VARS
350
3B59
  3
ACAD_LAYOUT
350
3D7D
  3
ACAD_MATERIAL
350
3D80
  3
ACAD_MLEADERSTYLE
350
3D9D
  3
ACAD_MLINESTYLE
350
1A
  3
ACAD_PLOTSETTINGS
350
3DA2
  3
ACAD_PLOTSTYLENAME
350
3D9F
  3
ACAD_SCALELIST
350
3D5B
  3
ACAD_TABLESTYLE
350
3D95
  3
ACDB_RECOMPOSE_DATA
350
3D9B
  3
ACDBVARIABLEDICTIONARY
350
70
  3
APPDATA
350
3B58
  0
DICTIONARY
  5
53D0
330
2
100
AcDbDictionary
280
     1
281
     1
  3
ACAD_LAYERFILTERS
360
53D4
  3
ACLYDICTIONARY
360
53D3
  0
DICTIONARY
  5
4A8A
330
17
100
AcDbDictionary
280
     1
281
     1
  3
ACAD_SORTENTS
360
4A8B
  0
DICTIONARY
  5
3DA1
102
{ACAD_REACTORS
330
C
102
}
330
C
100
AcDbDictionary
281
     1
  0
DICTIONARY
  5
D
102
{ACAD_REACTORS
330
C
102
}
330
C
100
AcDbDictionary
281
     1
  0
RASTERVARIABLES
  5
3B59
102
{ACAD_REACTORS
330
C
102
}
330
C
100
AcDbRasterVariables
 90
        0
 70
     1
 71
     1
 72
     0
  0
DICTIONARY
  5
3D7D
102
{ACAD_REACTORS
330
C
102
}
330
C
100
AcDbDictionary
281
     1
  3
Foglio 1
350
3D7F
  3
Model
350
3D7E
  0
DICTIONARY
  5
3D80
102
{ACAD_REACTORS
330
C
102
}
330
C
100
AcDbDictionary
281
     1
  3
ByBlock
350
3D82
  3
ByLayer
350
3D81
  3
Global
350
3D83
  0
DICTIONARY
  5
3D9D
102
{ACAD_REACTORS
330
C
102
}
330
C
100
AcDbDictionary
281
     1
  0
DICTIONARY
  5
1A
102
{ACAD_REACTORS
330
C
102
}
330
C
100
AcDbDictionary
281
     1
  3
STANDARD
350
1B
  0
DICTIONARY
  5
3DA2
102
{ACAD_REACTORS
330
C
102
}
330
C
100
AcDbDictionary
281
     1
  0
ACDBDICTIONARYWDFLT
  5
3D9F
102
{ACAD_REACTORS
330
C
102
}
330
C
100
AcDbDictionary
281
     1
  3
Normal
350
3DA0
100
AcDbDictionaryWithDefault
340
3DA0
  0
DICTIONARY
  5
3D5B
102
{ACAD_REACTORS
330
C
102
}
330
C
100
AcDbDictionary
281
     1
  3
A0
350
3D5C
  3
A1
350
3D5D
  3
A2
350
3D5E
  3
A3
350
3D5F
  3
A4
350
3D60
  3
A5
350
3D61
  3
A6
350
3D62
  3
A7
350
3D63
  3
A8
350
3D64
  3
A9
350
3D65
  3
B0
350
3D66
  3
B1
350
3D67
  3
B2
350
3D68
  3
B3
350
3D69
  3
B4
350
3D6A
  3
B5
350
3D6B
  3
B6
350
3D6C
  3
B7
350
3D6D
  3
B8
350
3D6E
  3
B9
350
3D6F
  3
C0
350
3D70
  3
C1
350
3D71
  3
C2
350
3D72
  3
C3
350
3D73
  3
C4
350
3D74
  3
C5
350
3D75
  3
C6
350
3D76
  3
C7
350
3D77
  3
C8
350
3D78
  3
C9
350
3D79
  3
D0
350
3D7A
  3
D1
350
3D7B
  3
D2
350
3D7C
  0
DICTIONARY
  5
3D95
102
{ACAD_REACTORS
330
C
102
}
330
C
100
AcDbDictionary
281
     1
  3
Standard
350
3D96
  0
XRECORD
  5
3D9B
102
{ACAD_REACTORS
330
C
102
}
330
C
100
AcDbXrecord
280
     1
 90
        1
330
3D96
  0
DICTIONARY
  5
70
102
{ACAD_REACTORS
330
C
102
}
330
C
100
AcDbDictionary
281
     1
  3
CANNOSCALE
350
3D97
  3
CTABLESTYLE
350
3D9C
  3
DIMADEC
350
71
  3
SORTENTS
350
81D
  0
DICTIONARY
  5
3B58
102
{ACAD_REACTORS
330
C
102
}
330
C
100
AcDbDictionary
281
     1
  0
DICTIONARY
  5
53D4
102
{ACAD_REACTORS
330
53D0
102
}
330
53D0
100
AcDbDictionary
281
     1
  0
DICTIONARY
  5
53D3
102
{ACAD_REACTORS
330
53D0
102
}
330
53D0
100
AcDbDictionary
281
     1
1001
ACAD
1000
<All
  0
SORTENTSTABLE
  5
4A8B
102
{ACAD_REACTORS
330
4A8A
102
}
330
4A8A
100
AcDbSortentsTable
330
17
331
4350
  5
4350
331
428F
  5
428F
331
42D2
  5
42D2
331
437A
  5
437A
331
433F
  5
433F
331
4369
  5
4369
331
43FC
  5
43FC
331
42A2
  5
42A2
331
4352
  5
4352
331
4291
  5
4291
331
42D4
  5
42D4
331
437C
  5
437C
331
4341
  5
4341
331
436B
  5
436B
331
43FE
  5
43FE
331
42A4
  5
42A4
331
4293
  5
4293
331
4354
  5
4354
331
437E
  5
437E
331
42BD
  5
42BD
331
4343
  5
4343
331
316D
  5
316D
331
436D
  5
436D
331
42E9
  5
42E9
331
4273
  5
4273
331
42A6
  5
42A6
331
42D8
  5
42D8
331
4295
  5
4295
331
4356
  5
4356
331
4380
  5
4380
331
4345
  5
4345
331
436F
  5
436F
331
4275
  5
4275
331
42A8
  5
42A8
331
4358
  5
4358
331
4297
  5
4297
331
4382
  5
4382
331
4280
  5
4280
331
42ED
  5
42ED
331
4277
  5
4277
331
42AA
  5
42AA
331
435A
  5
435A
331
425E
  5
425E
331
4299
  5
4299
331
4349
  5
4349
331
4282
  5
4282
331
42EF
  5
42EF
331
42AC
  5
42AC
331
4279
  5
4279
331
435C
  5
435C
331
429B
  5
429B
331
434B
  5
434B
331
41E9
  5
41E9
331
4284
  5
4284
331
42F1
  5
42F1
331
42AE
  5
42AE
331
427B
  5
427B
331
4334
  5
4334
331
43F1
  5
43F1
331
435E
  5
435E
331
429D
  5
429D
331
434D
  5
434D
331
42C9
  5
42C9
331
41EB
  5
41EB
331
4286
  5
4286
331
4336
  5
4336
331
4371
  5
4371
331
427D
  5
427D
331
42B0
  5
42B0
331
43F3
  5
43F3
331
4360
  5
4360
331
429F
  5
429F
331
434F
  5
434F
331
4288
  5
4288
331
4338
  5
4338
331
4373
  5
4373
331
427F
  5
427F
331
42B2
  5
42B2
331
43F5
  5
43F5
331
4362
  5
4362
331
42E4
  5
42E4
331
4327
  5
4327
331
4260
  5
4260
331
41EF
  5
41EF
331
428A
  5
428A
331
433A
  5
433A
331
4375
  5
4375
331
42B4
  5
42B4
331
43F7
  5
43F7
331
4364
  5
4364
331
42E6
  5
42E6
331
4262
  5
4262
331
42CF
  5
42CF
331
430A
  5
430A
331
41F1
  5
41F1
331
428C
  5
428C
331
433C
  5
433C
331
4377
  5
4377
331
43F9
  5
43F9
331
4366
  5
4366
331
4264
  5
4264
331
428E
  5
428E
331
433E
  5
433E
331
4379
  5
4379
331
43FB
  5
43FB
331
432D
  5
432D
331
4368
  5
4368
331
42A1
  5
42A1
331
4351
  5
4351
331
4290
  5
4290
331
4340
  5
4340
331
437B
  5
437B
331
43FD
  5
43FD
331
432F
  5
432F
331
436A
  5
436A
331
42A3
  5
42A3
331
4353
  5
4353
331
4292
  5
4292
331
4342
  5
4342
331
437D
  5
437D
331
42BC
  5
42BC
331
4307
  5
4307
331
43FF
  5
43FF
331
436C
  5
436C
331
42E8
  5
42E8
331
42A5
  5
42A5
331
4355
  5
4355
331
42D7
  5
42D7
331
4294
  5
4294
331
431A
  5
431A
331
42BE
  5
42BE
331
4344
  5
4344
331
437F
  5
437F
331
436E
  5
436E
331
42EA
  5
42EA
331
4274
  5
4274
331
42A7
  5
42A7
331
431C
  5
431C
331
4357
  5
4357
331
4296
  5
4296
331
4346
  5
4346
331
4381
  5
4381
331
4276
  5
4276
331
42A9
  5
42A9
331
4359
  5
4359
331
4298
  5
4298
331
4383
  5
4383
331
4281
  5
4281
331
4331
  5
4331
331
42EE
  5
42EE
331
42AB
  5
42AB
331
4278
  5
4278
331
435B
  5
435B
331
425F
  5
425F
331
429A
  5
429A
331
434A
  5
434A
331
41E8
  5
41E8
331
4283
  5
4283
331
4333
  5
4333
331
42AD
  5
42AD
331
427A
  5
427A
331
42F0
  5
42F0
331
43F0
  5
43F0
331
429C
  5
429C
331
435D
  5
435D
331
434C
  5
434C
331
41EA
  5
41EA
331
4285
  5
4285
331
4335
  5
4335
331
4370
  5
4370
331
42AF
  5
42AF
331
427C
  5
427C
331
42F2
  5
42F2
331
43F2
  5
43F2
331
435F
  5
435F
331
429E
  5
429E
331
42E1
  5
42E1
331
434E
  5
434E
331
41EC
  5
41EC
331
4287
  5
4287
331
427E
  5
427E
331
42B1
  5
42B1
331
4337
  5
4337
331
4372
  5
4372
331
43F4
  5
43F4
331
4326
  5
4326
331
4361
  5
4361
331
42CC
  5
42CC
331
41EE
  5
41EE
331
4289
  5
4289
331
42B3
  5
42B3
331
4339
  5
4339
331
4374
  5
4374
331
43F6
  5
43F6
331
4328
  5
4328
331
4363
  5
4363
331
4261
  5
4261
331
428B
  5
428B
331
42CE
  5
42CE
331
41F0
  5
41F0
331
42B5
  5
42B5
331
433B
  5
433B
331
4376
  5
4376
331
43F8
  5
43F8
331
432A
  5
432A
331
4365
  5
4365
331
4263
  5
4263
331
430B
  5
430B
331
428D
  5
428D
331
41F2
  5
41F2
331
433D
  5
433D
331
4378
  5
4378
331
43FA
  5
43FA
331
4367
  5
4367
331
42A0
  5
42A0
  0
LAYOUT
  5
3D7F
102
{ACAD_REACTORS
330
3D7D
102
}
330
3D7D
100
AcDbPlotSettings
  1

  2
none_device
  4

  6

 40
0.0
 41
0.0
 42
0.0
 43
0.0
 44
0.0
 45
0.0
 46
0.0
 47
0.0
 48
0.0
 49
0.0
140
0.0
141
0.0
142
1.0
143
1.0
 70
   688
 72
     0
 73
     0
 74
     5
  7
aclt.ctb
 75
    16
147
1.0
 76
     0
 77
     2
 78
   300
148
0.0
149
0.0
100
AcDbLayout
  1
Foglio 1
 70
     1
 71
     1
 10
0.0
 20
0.0
 11
12.0
 21
9.0
 12
0.0
 22
0.0
 32
0.0
 14
1.000000000000000E+20
 24
1.000000000000000E+20
 34
1.000000000000000E+20
 15
-1.000000000000000E+20
 25
-1.000000000000000E+20
 35
-1.000000000000000E+20
146
0.0
 13
0.0
 23
0.0
 33
0.0
 16
1.0
 26
0.0
 36
0.0
 17
0.0
 27
1.0
 37
0.0
 76
     0
330
14
  0
LAYOUT
  5
3D7E
102
{ACAD_REACTORS
330
3D7D
102
}
330
3D7D
100
AcDbPlotSettings
  1

  2
none_device
  4
Letter_(8.50_x_11.00_Inches)
  6

 40
6.349999904632568
 41
6.349999904632568
 42
6.350006103515625
 43
6.350006103515625
 44
215.8999938964844
 45
279.3999938964844
 46
0.0
 47
0.0
 48
0.0
 49
0.0
140
0.0
141
0.0
142
1.0
143
75.63511322929925
 70
 11952
 72
     0
 73
     1
 74
     0
  7
aclt.ctb
 75
     0
147
0.013221372419558
 76
     0
 77
     2
 78
   300
148
-4926.709684876783
149
13615.87999776501
100
AcDbLayout
  1
Model
 70
     1
 71
     0
 10
0.0
 20
0.0
 11
420.0
 21
297.0
 12
0.0
 22
0.0
 32
0.0
 14
-19.27867960493108
 24
78.09487757765947
 34
0.0
 15
547.4074682319259
 25
360.0948775776595
 35
0.0
146
0.0
 13
0.0
 23
0.0
 33
0.0
 16
1.0
 26
0.0
 36
0.0
 17
0.0
 27
1.0
 37
0.0
 76
     0
330
17
1001
ACAD_PSEXT
1000
Nessuno
1000
Nessuno
1000
Non applicabile
1000
Il layout non viene stampato a meno che non venga selezionato un nuovo nome di configurazione della stampante.
1070
     0
  0
MATERIAL
  5
3D82
102
{ACAD_REACTORS
330
3D80
102
}
330
3D80
100
AcDbMaterial
  1
ByBlock
  0
MATERIAL
  5
3D81
102
{ACAD_REACTORS
330
3D80
102
}
330
3D80
100
AcDbMaterial
  1
ByLayer
  0
MATERIAL
  5
3D83
102
{ACAD_REACTORS
330
3D80
102
}
330
3D80
100
AcDbMaterial
  1
Global
  0
MLINESTYLE
  5
1B
102
{ACAD_REACTORS
330
1A
102
}
330
1A
100
AcDbMlineStyle
  2
STANDARD
 70
     0
  3

 62
   256
 51
90.0
 52
90.0
 71
     2
 49
0.5
 62
   256
  6
BYLAYER
 49
-0.5
 62
   256
  6
BYLAYER
  0
ACDBPLACEHOLDER
  5
3DA0
102
{ACAD_REACTORS
330
3D9F
102
}
330
3D9F
  0
ACAD_PROXY_OBJECT
  5
3D5C
102
{ACAD_REACTORS
330
3D5B
102
}
330
3D5B
100
AcDbProxyObject
 90
      499
 91
      503
 95
  5046297
 70
     0
 93
       41
310
903313A31580
 94
        0
  0
ACAD_PROXY_OBJECT
  5
3D5D
102
{ACAD_REACTORS
330
3D5B
102
}
330
3D5B
100
AcDbProxyObject
 90
      499
 91
      503
 95
  5046297
 70
     0
 93
      105
310
903313A324000000000000004000
 94
        0
  0
ACAD_PROXY_OBJECT
  5
3D5E
102
{ACAD_REACTORS
330
3D5B
102
}
330
3D5B
100
AcDbProxyObject
 90
      499
 91
      503
 95
  5046297
 70
     0
 93
      105
310
903313A344000000000000104000
 94
        0
  0
ACAD_PROXY_OBJECT
  5
3D5F
102
{ACAD_REACTORS
330
3D5B
102
}
330
3D5B
100
AcDbProxyObject
 90
      499
 91
      503
 95
  5046297
 70
     0
 93
      105
310
903313A354000000000000144000
 94
        0
  0
ACAD_PROXY_OBJECT
  5
3D60
102
{ACAD_REACTORS
330
3D5B
102
}
330
3D5B
100
AcDbProxyObject
 90
      499
 91
      503
 95
  5046297
 70
     0
 93
      105
310
903313A384000000000000204000
 94
        0
  0
ACAD_PROXY_OBJECT
  5
3D61
102
{ACAD_REACTORS
330
3D5B
102
}
330
3D5B
100
AcDbProxyObject
 90
      499
 91
      503
 95
  5046297
 70
     0
 93
      113
310
904313A31304000000000000244000
 94
        0
  0
ACAD_PROXY_OBJECT
  5
3D62
102
{ACAD_REACTORS
330
3D5B
102
}
330
3D5B
100
AcDbProxyObject
 90
      499
 91
      503
 95
  5046297
 70
     0
 93
      113
310
904313A31364000000000000304000
 94
        0
  0
ACAD_PROXY_OBJECT
  5
3D63
102
{ACAD_REACTORS
330
3D5B
102
}
330
3D5B
100
AcDbProxyObject
 90
      499
 91
      503
 95
  5046297
 70
     0
 93
      113
310
904313A32304000000000000344000
 94
        0
  0
ACAD_PROXY_OBJECT
  5
3D64
102
{ACAD_REACTORS
330
3D5B
102
}
330
3D5B
100
AcDbProxyObject
 90
      499
 91
      503
 95
  5046297
 70
     0
 93
      113
310
904313A333040000000000003E4000
 94
        0
  0
ACAD_PROXY_OBJECT
  5
3D65
102
{ACAD_REACTORS
330
3D5B
102
}
330
3D5B
100
AcDbProxyObject
 90
      499
 91
      503
 95
  5046297
 70
     0
 93
      113
310
904313A34304000000000000444000
 94
        0
  0
ACAD_PROXY_OBJECT
  5
3D66
102
{ACAD_REACTORS
330
3D5B
102
}
330
3D5B
100
AcDbProxyObject
 90
      499
 91
      503
 95
  5046297
 70
     0
 93
      113
310
904313A35304000000000000494000
 94
        0
  0
ACAD_PROXY_OBJECT
  5
3D67
102
{ACAD_REACTORS
330
3D5B
102
}
330
3D5B
100
AcDbProxyObject
 90
      499
 91
      503
 95
  5046297
 70
     0
 93
      121
310
905313A3130304000000000000594000
 94
        0
  0
ACAD_PROXY_OBJECT
  5
3D68
102
{ACAD_REACTORS
330
3D5B
102
}
330
3D5B
100
AcDbProxyObject
 90
      499
 91
      503
 95
  5046297
 70
     0
 93
      105
310
903323A310000000000000010140
 94
        0
  0
ACAD_PROXY_OBJECT
  5
3D69
102
{ACAD_REACTORS
330
3D5B
102
}
330
3D5B
100
AcDbProxyObject
 90
      499
 91
      503
 95
  5046297
 70
     0
 93
      105
310
903343A310000000000000410159
 94
        0
  0
ACAD_PROXY_OBJECT
  5
3D6A
102
{ACAD_REACTORS
330
3D5B
102
}
330
3D5B
100
AcDbProxyObject
 90
      499
 91
      503
 95
  5046297
 70
     0
 93
      105
310
903383A310000000000000810140
 94
        0
  0
ACAD_PROXY_OBJECT
  5
3D6B
102
{ACAD_REACTORS
330
3D5B
102
}
330
3D5B
100
AcDbProxyObject
 90
      499
 91
      503
 95
  5046297
 70
     0
 93
      113
310
90431303A310000000000000910140
 94
        0
  0
ACAD_PROXY_OBJECT
  5
3D6C
102
{ACAD_REACTORS
330
3D5B
102
}
330
3D5B
100
AcDbProxyObject
 90
      499
 91
      503
 95
  5046297
 70
     0
 93
      121
310
9053130303A310000000000001650100
 94
        0
  0
ACAD_PROXY_OBJECT
  5
3D6D
102
{ACAD_REACTORS
330
3D5B
102
}
330
3D5B
100
AcDbProxyObject
 90
      499
 91
      503
 95
  5046297
 70
     0
 93
      257
310
90E312F31323822203D2031272D3022000000000000200FC000000000000284000
 94
        0
  0
ACAD_PROXY_OBJECT
  5
3D6E
102
{ACAD_REACTORS
330
3D5B
102
}
330
3D5B
100
AcDbProxyObject
 90
      499
 91
      503
 95
  5046297
 70
     0
 93
      249
310
90D312F363422203D2031272D3022000000000000240FC000000000000284000
 94
        0
  0
ACAD_PROXY_OBJECT
  5
3D6F
102
{ACAD_REACTORS
330
3D5B
102
}
330
3D5B
100
AcDbProxyObject
 90
      499
 91
      503
 95
  5046297
 70
     0
 93
      249
310
90D312F333222203D2031272D3022000000000000280FC000000000000284040
 94
        0
  0
ACAD_PROXY_OBJECT
  5
3D70
102
{ACAD_REACTORS
330
3D5B
102
}
330
3D5B
100
AcDbProxyObject
 90
      499
 91
      503
 95
  5046297
 70
     0
 93
      249
310
90D312F313622203D2031272D30220000000000002C0FC000000000000284000
 94
        0
  0
ACAD_PROXY_OBJECT
  5
3D71
102
{ACAD_REACTORS
330
3D5B
102
}
330
3D5B
100
AcDbProxyObject
 90
      499
 91
      503
 95
  5046297
 70
     0
 93
      249
310
90D332F333222203D2031272D30220000000000002E0FC000000000000284040
 94
        0
  0
ACAD_PROXY_OBJECT
  5
3D72
102
{ACAD_REACTORS
330
3D5B
102
}
330
3D5B
100
AcDbProxyObject
 90
      499
 91
      503
 95
  5046297
 70
     0
 93
      241
310
90C312F3822203D2031272D3022000000000000300FC000000000000284040
 94
        0
  0
ACAD_PROXY_OBJECT
  5
3D73
102
{ACAD_REACTORS
330
3D5B
102
}
330
3D5B
100
AcDbProxyObject
 90
      499
 91
      503
 95
  5046297
 70
     0
 93
      249
310
90D332F313622203D2031272D3022000000000000320FC000000000000284040
 94
        0
  0
ACAD_PROXY_OBJECT
  5
3D74
102
{ACAD_REACTORS
330
3D5B
102
}
330
3D5B
100
AcDbProxyObject
 90
      499
 91
      503
 95
  5046297
 70
     0
 93
      241
310
90C312F3422203D2031272D3022000000000000340FC000000000000284040
 94
        0
  0
ACAD_PROXY_OBJECT
  5
3D75
102
{ACAD_REACTORS
330
3D5B
102
}
330
3D5B
100
AcDbProxyObject
 90
      499
 91
      503
 95
  5046297
 70
     0
 93
      241
310
90C332F3822203D2031272D3022000000000000360FC000000000000284040
 94
        0
  0
ACAD_PROXY_OBJECT
  5
3D76
102
{ACAD_REACTORS
330
3D5B
102
}
330
3D5B
100
AcDbProxyObject
 90
      499
 91
      503
 95
  5046297
 70
     0
 93
      241
310
90C312F3222203D2031272D3022000000000000380FC000000000000284000
 94
        0
  0
ACAD_PROXY_OBJECT
  5
3D77
102
{ACAD_REACTORS
330
3D5B
102
}
330
3D5B
100
AcDbProxyObject
 90
      499
 91
      503
 95
  5046297
 70
     0
 93
      241
310
90C332F3422203D2031272D30220000000000003A0FC000000000000284040
 94
        0
  0
ACAD_PROXY_OBJECT
  5
3D78
102
{ACAD_REACTORS
330
3D5B
102
}
330
3D5B
100
AcDbProxyObject
 90
      499
 91
      503
 95
  5046297
 70
     0
 93
      161
310
90A3122203D2031272D30224000000000000284000
 94
        0
  0
ACAD_PROXY_OBJECT
  5
3D79
102
{ACAD_REACTORS
330
3D5B
102
}
330
3D5B
100
AcDbProxyObject
 90
      499
 91
      503
 95
  5046297
 70
     0
 93
      257
310
90E312D312F3222203D2031272D30220000000000003E0FC000000000000284000
 94
        0
  0
ACAD_PROXY_OBJECT
  5
3D7A
102
{ACAD_REACTORS
330
3D5B
102
}
330
3D5B
100
AcDbProxyObject
 90
      499
 91
      503
 95
  5046297
 70
     0
 93
      225
310
90A3322203D2031272D302200000000000002100000000000000284028
 94
        0
  0
ACAD_PROXY_OBJECT
  5
3D7B
102
{ACAD_REACTORS
330
3D5B
102
}
330
3D5B
100
AcDbProxyObject
 90
      499
 91
      503
 95
  5046297
 70
     0
 93
      225
310
90A3622203D2031272D302200000000000006100000000000000284000
 94
        0
  0
ACAD_PROXY_OBJECT
  5
3D7C
102
{ACAD_REACTORS
330
3D5B
102
}
330
3D5B
100
AcDbProxyObject
 90
      499
 91
      503
 95
  5046297
 70
     0
 93
      249
310
90D31272D3022203D2031272D30220000000000000A100000000000000284000
 94
        0
  0
TABLESTYLE
  5
3D96
102
{ACAD_XDICTIONARY
360
3D98
102
}
102
{ACAD_REACTORS
330
3D95
102
}
330
3D95
100
AcDbTableStyle
  3
Standard
 70
     0
 71
     0
 40
0.06
 41
0.06
280
     0
281
     0
  7
STANDARD
140
0.18
170
     2
 62
     0
 63
   257
283
     0
274
    -2
284
     1
 64
     0
275
    -2
285
     1
 65
     0
276
    -2
286
     1
 66
     0
277
    -2
287
     1
 67
     0
278
    -2
288
     1
 68
     0
279
    -2
289
     1
 69
     0
  7
STANDARD
140
0.25
170
     5
 62
     0
 63
   257
283
     0
274
    -2
284
     1
 64
     0
275
    -2
285
     1
 65
     0
276
    -2
286
     1
 66
     0
277
    -2
287
     1
 67
     0
278
    -2
288
     1
 68
     0
279
    -2
289
     1
 69
     0
  7
STANDARD
140
0.18
170
     5
 62
     0
 63
   257
283
     0
274
    -2
284
     1
 64
     0
275
    -2
285
     1
 65
     0
276
    -2
286
     1
 66
     0
277
    -2
287
     1
 67
     0
278
    -2
288
     1
 68
     0
279
    -2
289
     1
 69
     0
  0
DICTIONARYVAR
  5
3D97
102
{ACAD_REACTORS
330
70
102
}
330
70
100
DictionaryVariables
280
     0
  1
1:1
  0
DICTIONARYVAR
  5
3D9C
102
{ACAD_REACTORS
330
70
102
}
330
70
100
DictionaryVariables
280
     0
  1
STANDARD
  0
DICTIONARYVAR
  5
71
102
{ACAD_REACTORS
330
70
102
}
330
70
100
DictionaryVariables
280
     0
  1
1
  0
DICTIONARYVAR
  5
81D
102
{ACAD_REACTORS
330
70
102
}
330
70
100
DictionaryVariables
280
     0
  1
96
  0
DICTIONARY
  5
3D98
330
3D96
100
AcDbDictionary
280
     1
281
     1
  3
ACAD_ROUNDTRIP_2008_TABLESTYLE_CELLSTYLEMAP
360
3D9A
  3
ACAD_XREC_ROUNDTRIP
360
3D99
  0
ACAD_PROXY_OBJECT
  5
3D9A
102
{ACAD_REACTORS
330
3D98
102
}
330
3D98
100
AcDbProxyObject
 90
      499
 91
      510
 95
  5046297
 70
     0
 93
     5176
310
40D05406A0000003200101A412A5028000000C10002B5E8DC0F42B1CFD012E07A17AD46E2B8FCB81E85EB51B8AE3F2E07A17AD46E2B8FCB81E85EB51B8AE3F2E07A17AD46E2B8FCB81E85EB51B8AE3F419019018000000C1003FBFFFFFE02B5E8DC0F42A9CFD029018000000C1003FBFFFFFE02B5E8DC0F42A9CFD04901800
310
0000C1003FBFFFFFE02B5E8DC0F42A9CFD089018000000C1003FBFFFFFE02B5E8DC0F42A9CFD109018000000C1003FBFFFFFE02B5E8DC0F42A9CFD209018000000C1003FBFFFFFE02B5E8DC0F42A9CFD03409055F4441544141501A8000000C800406904A941600000030400000000000000D03F404B81E85EB51B8AE3F2E0
310
7A17AD46E2B8FCB81E85EB51B8AE3F2E07A17AD46E2B8FCB81E85EB51B8AE3F2E07A17AD46E2B8FD0640640600000030400FEFFFFFF80AD7A3703D0AA73F40A40600000030400FEFFFFFF80AD7A3703D0AA73F41240600000030400FEFFFFFF80AD7A3703D0AA73F42240600000030400FEFFFFFF80AD7A3703D0AA73F4424
310
0600000030400FEFFFFFF80AD7A3703D0AA73F48240600000030400FEFFFFFF80AD7A3703D0AA73F405014197D512551311505406A0000003200101A412A5058000000C10002B5E8DC0F42B1CFD012E07A17AD46E2B8FCB81E85EB51B8AE3F2E07A17AD46E2B8FCB81E85EB51B8AE3F2E07A17AD46E2B8FCB81E85EB51B8AE
310
3F419019018000000C1003FBFFFFFE02B5E8DC0F42A9CFD029018000000C1003FBFFFFFE02B5E8DC0F42A9CFD049018000000C1003FBFFFFFE02B5E8DC0F42A9CFD089018000000C1003FBFFFFFE02B5E8DC0F42A9CFD109018000000C1003FBFFFFFE02B5E8DC0F42A9CFD209018000000C1003FBFFFFFE02B5E8DC0F42A9
310
CFD02405075F48454144455200
340
F
340
11
340
11
340
11
340
11
340
11
340
11
340
F
340
11
340
11
340
11
340
11
340
11
340
11
340
F
340
11
340
11
340
11
340
11
340
11
340
11
 94
        0
  0
XRECORD
  5
3D99
102
{ACAD_REACTORS
330
3D98
102
}
330
3D98
100
AcDbXrecord
280
     1
102
ACAD_ROUNDTRIP_PRE2007_TABLESTYLE
 90
        4
 91
        0
  1

 92
        4
 93
        0
  2

 94
        4
 95
        0
  3

  0
ENDSEC
  0
EOF
